Портал для гитаристов
gtars.ru

Eighties Matchbox B-line Disaster — Morning Has Broken

 -----------------------------------------------------------------------------
	     morning has broken - 80's matchox b-line disaster
-----------------------------------------------------------------------------
Tabbed by:placeboboy
Email:AMBEER195139847@AOL.COM

ok this can be for the lead or rythym guitar. but seeing as there is already
a lead and bass tab (by me)this maight aswell be the rythym.

Tuning: (LOW TO HIGH)e,a,d,g,b,e/regular

intro/bridge

e|------------------|
B|------------------|
G|------------------|
D|-4444444444444444-|
A|-4444444444444444-|
E|------------------|

VERSE/ MAIN RIFF

e|--------------|
B|--------------|
G|--------------|Times loads. When vocals come in alternate lines 
D|-2-42425-4545-| with the bass guitar.
A|-2-42425-4545-|
E|---------3232-|

chorous

e|----------------|
B|----------------|
G|----------------| times about 4
D|-4444-8-4-0-111-|
A|-4444-8-4-0-111-|
E|----------------|

verse 2 only bass

bridge 

chorous

verse 3 same 

e|--------------|
B|--------------|
G|--------------|Times loads. alternate lines 
D|-2-42425-4545-| with the lead guitar.
A|-2-42425-4545-|
E|---------3232-|

wierd bit

e|-------------------------------------------------------------|
B|-------------------------------------------------------------|
G|-7-777777777-7-777777777-8-8888888888-11-11111111111111------|
D|-7-777777777-7-777777777-8-8888888888-11-11111111111111------|
A|-------------------------------------------------------------|
E|-------------------------------------------------------------|

the do the same but instead  of going to fret 11 go to fret 5 

Eighties Matchbox B-line Disaster — Morning Has Broken

 intro

G|---------------------------------|
D|---------------------------------|
A|---------------------------------|
E|-2-2-2-2-2-2-2-2-2-2-2-2-2-2-2-2-|

main riff/VERSES

G|--------------------|
D|--------------------|
A|--------------------| times loads
E|-2-5-2-5-2--3-2-3-2-|

chorous: liste to the cd you will under stand it then.

G|--------------------------------------------------------|
D|--------------------------------------------------------|
A|----------------------------2222-5-2-0-11-2222-5-2-0-11-|
E|-2222-5-2-0-11-2222-5-2-0-11----------------------------|

verse 2 all bass

intro 

chorous

verse

wierd versey thing: i dont know it yet but im workin' on it.

THANX!