Портал для гитаристов
gtars.ru

Gob — What To Do

 What To Do - by Gob
*******************

Couldn't find the tab fer this on the net anywhere so I 
tabbed this myself. Easy song but still it's fun to play.
Tuning is droppped to Eb, like so:


Tuning: Gb
        Db
        Ab
        Eb

(don't have to tune Gb you never really use it. But if
you throw in your own little bits into a song like me
by all means tune it)


Intro (just right after the small guitar bit)

Gb---------------------------------------------------
Db---------------------------------------------------
Ab222222222222---------------------------------------
Eb-------------444444444444-000000000000-222222222222


Verse

Gb-----------------------------
Db-----------------------------
Ab22222222222222---------------
Eb--------------2222222-0000000


Chourus

Gb----------------------------
Db--------------2222222-------
Ab44444444444444-------2222222
Eb----------------------------

You don't go into the chourus until about the middle
of the song. You play it twice, but the second time
you play it, it's a bit different it goes like this:

Gb----------------------------------
Db--------------2222222-------------
Ab44444444444444-------222----------
Eb------------------------2222222222

Then it goes into the guitar solo. The solo repeats
itself and the bass joins in on the repeat with the drums.

Gb--------------------------------
Db--------------------------------
Ab22---22-------------------------
Eb-------44---44-22---22-00-000000


Bridge

Gb-------------------------------
Db-------------------------------
Ab22222222-----------------------
Eb--------4444444-2222222-0000000

Then you just play the chourus until the end of the song.

That's pretty much it. If there's any mistakes please
e-mail me. hornklof@sprint.ca
	-Karl
 
Аккорд GbАккорд DbАккорд AbАккорд Eb

Gob — What To Do

 Intro (just right after the small guitar bit)

G---------------------------------------------------
D---------------------------------------------------
A222222222222---------------------------------------
E-------------444444444444-000000000000-222222222222

Verse

Gb-----------------------------
Db-----------------------------
Ab22222222222222---------------
Eb--------------2222222-0000000

Chourus

Gb----------------------------
Db--------------2222222-------
Ab44444444444444-------2222222
Eb----------------------------

Verse

Gb-----------------------------
Db-----------------------------
Ab22222222222222---------------
Eb--------------2222222-0000000

Chourus

Gb----------------------------
Db--------------2222222-------
Ab44444444444444-------2222222
Eb----------------------------

The na na na na na na part

Gb----------------------------------
Db--------------2222222-------------
Ab44444444444444-------222----------
Eb------------------------2222222222

Guitar solo
Gb--------------------------------
Db--------------------------------
Ab22---22-------------------------
Eb-------44---44-22---22-00-000000

Gb----------------------------------
Db--------------2222222-------------
Ab44444444444444-------222----------
Eb------------------------2222222222

Gb----------------------------------
Db--------------2222222-------------
Ab44444444444444-------222----------
Eb------------------------2222222222

Chourus

Gb----------------------------
Db--------------2222222-------
Ab44444444444444-------2222222
Eb----------------------------

And just play that for the rest of the song, it's realy easy