Портал для гитаристов
gtars.ru

Story Of The Year — Until The Day I Die

 Hey all... I got these from a friend and made some changes.. good luck...

Intro                                 2x        
1|    |--------------------------------------|
2|    |--------------------------------------|
3|REST|--------------------------------------|
4|    |-777-777-777-101010--333-333-333-5555-|

1st Verse                            2x  2nd:
1|-------------------------------------|-------------|-------------------------------
2|-------------------------------------|-------------|-------------------------------
3|-------------------5555-555----------|-------------|-------------------------------
4|-7777-777-3333-333----------5555-555-|-5555-5/103-|-7777-7777-3333-3333-----------
5|-------------------------------------|-------------|---------------------3333-3333-
Cont.           2x                                                   2x        
1|-----------|    |------------------------------------------|
2|-----------|    |------------------------------------------|
3|-----------|REST|------------------------------------------|
4|-5555-5555-|    |-7777-7777-3333-3333-----------5555-5555--|
5|-----------|    |---------------------3333-3333------------|

Chorus                                3x
1|----------------------------------|---------------|
2|----------------------------------|---------------|
3|----------------------------------|---------------|
4|--333--555--7777-7777-7777-101098-|-333--555------|
5|----------------------------------|-----------0~--|

2nd Verse                                                2x
1|-------------|-----------------------------------------|---------------------
2|-------------|-----------------------------------------|---------------------
3|-------------|---------------------5555-5555-----------|---------------------
4|-5555-5/103-|-7777-7777-3333-3333-----------5555-5555-|-7777-7777-3333-3333-
5|-------------|-----------------------------------------|---------------------
Cont.
1|-----------------------------------------------------------------------------------|
2|-----------------------------------------------------------------------------------|
3|--------------------------------------------------------------------------12121212-|
4|-----------5555-5/103--7777-7777-3333-3333-----------5555-5555-5555-5555/---------|
5|-3333-3333----------------------------------3333-3333------------------------------|

Chorus  3x|----------|
          |----------|
          |----------|
          |-333--555-|
Bridge                     4x        
1|---------------------|------|
2|---------------------|------|
3|---------------------|------|
4|-77--55--x33-333-333-|------|
5|---------------------|--0~--|

Interlude
1|-----------------------------------------------------------------------------------|
2|-----------------------------------------------------------------------------------|
3|-2222-2222-0000-0000---------------------2222-2222-0000-0000-----------5h777-7/999-|
4|---------------------3333-3333-3333-3333---------------------3333-3333-------------|
Cont.
1|-------------------------------------------------------|
2|-------------------------------------------------------|
3|-2-2--0-0-----------2-2--0-0-101010101010-121212121212-|
4|-----------3-3-33-3------------------------------------|

|    |            |------------------------------|------------------------------------
|    |            |------------------------------|------------------------------------
|REST|Chorus    3x|----------121212125/12121212-|------------------------------------
|    |            |-333--555---------------------|-3333-3333-5555-5555-7777-7777-7777-
Cont.                                                END
1|------------------------------|        |-----------------|
2|------------------------------|        |-----------------|
3|------------------------------|Intro 2x|-----------------|
4|--101098--3333-3333-5555-5555-|        |--77--55-333-3~--|

best of luck to all.. I hope they are right, or at least they give you a start... bye.. 

Story Of The Year — Until The Day I Die

 www.storyoftheyear.net
hey guys story of the year is a sick song n this is jus 1 of the amazin songs
from there new cd page avenue. got ne corrections send em 2 me at matchokromance8@aol.com
----------------------------------------------------------------------------
			     UNTIL THE DAY DIE - STORY OF THE YEAR
----------------------------------------------------------------------------
Tuning:d
intro
e|---------------------------------------------| 
B|---------10-------------------10-------------| 
G|-----7------7---7-------7---7----7---7-------| 
D|-9-9---9------9-----------9--------9---------|
A|---------------------------------------------| 
D|---------------------------------------------| 

e|------------------------------------------------| 
B|------------------------------------------------| 
G|------------------------------------------------| 
D|-121212-121212--1111-111111--777-777--77-777----|
A|--9-9-9--9-9-9---9-9--9-9-9--555-555--55-555----| 
D|--9-9-9--9-9-9---9-9--9-9-9--555-555--55-555----| 

verse

guitar 1 plays intro
guitar 2-
e|---------------------------------------------| 
B|---------------------------------------------| 
G|---------------------77777777----------------| 
D|-99999999--55555555--77777777--77777777------|
A|-99999999--55555555--55555555--77777777------| 
D|-99999999--55555555------------77777777------| 

chorus*CHORUS* (1:10-1:29) 
e|------------------------------------------------------| 
B|------------------------------------------------------| 
G|------------------------------------------------------| 
D|-5-5-5--7-7-7--1212121212121212-1111111111111111------|
A|-5-5-5--7-7-7---9-9-9-9-9-9-9-9--9-9-9-9-9-9-9-9------| 
D|-5-5-5--7-7-7---9-9-9-9-9-9-9-9--9-9-9-9-9-9-9-9------|

thats basically it 4 most of the song but the las 3 chords are

e|------------------------| 
B|------------------------| 
G|------------------------| 
D|-9-9---7-7---5-5~~------|
A|-9-9---7-7---5-5~~------| 
D|-9-9---7-7---5-5~~------
 
have fun got any corrections lemmie kno n lets get up some more soty tabs l8er guys 
Аккорд DIE

Story Of The Year — Until The Day I Die

 Here's a new tab for Story Of The Year - Until The Day I Die (The pre-album ver.)
If there are any corrections, please let me know.  Input is greatly appreciated!
Word of advice: Play it loud and just go straight down for either guitar 1 or 2.
Enjoi their new album out 9/16/03!


   Intro (Distortion)
   |---------------------------------------------------|
   |---------------------------------------------------|
x2 |---------------14--------------------14------------|  #1  Palm Muted    Here
   |------12----12----12----12--12----12----12----12---|
   |---14----14----------14--------14----------14------|
   |---------------------------------------------------|

   On #2 and #3, slide down on the first note but then leave it out on the repeat.

   Guitar 1 : Here it helps to use all downstrokes and some sort of muting technique a little bit.
   |------------------------------------------------------------------------------------------|
   |---15--15-15-15--15-15-15---14-14-14--14-14-14--------------------------------------------|
x2 |---14--14-14-14--14-14-14---14-14-14--14-14-14---14-14-14--14-14-14--14-14-14--14-14-14---|  #2
   |---12--12-12-12--12-12-12---12-12-12--12-12-12---12-12-12--12-12-12--12-12-12--12-12-12---|
   |-------------------------------------------------12-12-12--12-12-12--12-12-12--12-12-12---|
   |------------------------------------------------------------------------------------------|

   Guitar 2
   |-----------------------------------------------------------|
   |-----------------------------------------------------------|
x2 |---7---4-4-4--4-4-4--4-4--6--7---------------------2-2-2---|  #3
   |---7---4-4-4--4-4-4--4-4--6--7--5-5-5--5-5-5--5-5--2-2-2---|
   |---5---2-2-2--2-2-2--2-2--4--5--5-5-5--5-5-5--5-5--0-0-0---|
   |--------------------------------3-3-3--3-3-3--3-3----------|

   Guitar 1 (palm muted again)
   |----------------------------------------------------------------------------------------------|
   |----------------------------------------------------------------------------------------------|
x3 |-------------14--------------------14-----------------------14--------------------16----------| #4
   |----12----12----12----12--12----12----12----12-----12----12----12----12--14-11-14----14-11-14-|
   |-14----14----------14--------14----------14-----14----14----------14--------------------------|
   |----------------------------------------------------------------------------------------------|
  
   Out into chorus.
   |------------------------------------------------------------------------------------------------|
   |------------------------------------------------------------------------------------------------|
x1 |-------------14--------------------14-----------------------14-14-14-14-------------14-14-14-14-| #5
   |----12----12----12----12--12----12----12----12-----12----12----------------12----12-------------|
   |-14----14----------14--------14----------14-----14----14----------------14----14----------------|
   |------------------------------------------------------------------------------------------------|

   Guitar 2
   Let these two ring.
   |---------|
   |---------|
x1 |---7-----|  #6
   |-----7---|
   |---------|
   |---------|

   Palm muted.
   |------------------------------------------------------------------------|
   |------------------------------------------------------------------------|
x1 |---4-4-4-4-4-4-4-4-------------------7-7-7-7-7-7-7-7--2-2-2-2-2-2-2-2---|  #7
   |---4-2-2-2-2-2-2-2--5-5-5-5-5-5-5-5--7-7-7-7-7-7-7-7--2-2-2-2-2-2-2-2---|
   |---2-2-2-2-2-2-2-2--5-5-5-5-5-5-5-5--5-5-5-5-5-5-5-5--0-0-0-0-0-0-0-0---|
   |--------------------3-3-3-3-3-3-3-3-------------------------------------|


   |---------------------------------------------------------------------------|
   |---------------------------------------------------------------------------|
x1 |---4-4-4-4-4-4-4-4----------------------4-4-4-4-4-4-4-4--2-2-2-2-2-2-2-2---|  #8
   |---4-2-2-2-2-2-2-2--5-5-5-5-5-5-5-5-----2-2-2-2-2-2-2-2--2-2-2-2-2-2-2-2---|
   |---2-2-2-2-2-2-2-2--5-5-5-5-5-5-5-5-----2-2-2-2-2-2-2-2--0-0-0-0-0-0-0-0---|
   |--------------------3-3-3-3-3-3-3-3----------------------------------------|
                                            ^Open distortion here.

   Guitar 1(after a short pause)
   |-----------------------------------------------------------------------|
   |---------------------------------------15-15H17L15-15H17L15-15H17L15---|
x1 |---14-14-14-14---14-14-14-14-------------------------------------------|  #9
   |-----------------------------12----12----------------------------------|
   |--------------------------------14-------------------------------------|
   |-----------------------------------------------------------------------|

   |--------------------------------------------------------------------------------------------|
   |--------------------------------------------------------------------------------------------|
x1 |-14-14-14-14-----------14-14-14-14-----------14-14-14-14------------14-14-14-14-14-14-14-14-| #10
   |-------------12-11-----------------12-11-----------------12-11------------------------------|
   |-------------------12--------------------12--------------------12---------------------------|
   |--------------------------------------------------------------------------------------------|
                                                                      ^tiny pause between these
   Guitar 2                                                                   two parts
   |-----------------------------------|
   |-----------------------------------|
x3 |----------2-2-2--4-4-4-4-4-4-4-4---|  #11
   |---5-5-5--2-2-2--4-4-4-4-4-4-4-4---|
   |---5-5-5--0-0-0--2-2-2-2-2-2-2-2---|
   |---3-3-3---------------------------|

   |------------------|
   |------------------|
x1 |----------2-2-2---|  #12
   |---5-5-5--2-2-2---|
   |---5-5-5--0-0-0---|
   |---3-3-3----------|

   Guitar 1

Repeat #4
Repeat #5

   Guitar 2
   
   Palm muted.
   |------------------------------------------------------------------------|
   |------------------------------------------------------------------------|
x2 |---4-4-4-4-4-4-4-4-------------------7-7-7-7-7-7-7-7--2-2-2-2-2-2-2-2---|  #13
   |---4-2-2-2-2-2-2-2--5-5-5-5-5-5-5-5--7-7-7-7-7-7-7-7--2-2-2-2-2-2-2-2---|
   |---2-2-2-2-2-2-2-2--5-5-5-5-5-5-5-5--5-5-5-5-5-5-5-5--0-0-0-0-0-0-0-0---|
   |--------------------3-3-3-3-3-3-3-3-------------------------------------|

   Accent each third note and let ring just a little bit.
   |-----------------------------------------------------------|
   |-----------------------------------------------------------|
x1 |---4-4-4-4-4-4-----------------7-7-7-7-7-7---2-2-2-2-2-2---|  #14
   |---4-2-2-2-2-2---5-5-5-5-5-5---7-7-7-7-7-7---2-2-2-2-2-2---|
   |---2-2-2-2-2-2---5-5-5-5-5-5---5-5-5-5-5-5---0-0-0-0-0-0---|
   |-----------------3-3-3-3-3-3-------------------------------|

Repeat #8

   Guitar 1

Repeat #9
Repeat #10
This one part below seems to be a little more busy.
|----------------------------|
|-----------------------10---|
|-----------------11-12------|  #15
|------12-11-9-12------------|
|---10-----------------------|
|----------------------------|

   Guitar 2

Repeat #11

   |------------------------------------------|
   |------------------------------------------|
x1 |----------2-2-2---4-4--2-2----------------|  #16
   |---5-5-5--2-2-2---4-4--2-2--5-5-5-5-5-5---|
   |---5-5-5--0-0-0---2-2--0-0--5-5-5-5-5-5---|
   |---3-3-3--------------------3-3-3-3-3-3---|

   
   |---------------------------|
   |---------------------------|
x3 |---4-4--2-2----------------|  #17
   |---4-4--2-2--5-5-5-5-5-5---| 
   |---2-2--0-0--5-5-5-5-5-5---|
   |-------------3-3-3-3-3-3---|

   |----------------------|
   |------------------3---|
x1 |---4-4--2-2-------4---|  #18
   |---4-4--2-2--5-5------|
   |---2-2--0-0--5-5------|
   |-------------3-3------|
                      ^Let this note ring.

   Guitar 1 (very little difference between the two)
   |-------------------------------------------------------------------------------------------------|
   |-------------------------------------------------------------------------------------------------|
x5 |-------------------------------------------------------------------------------------------------| #19
   |-------------12-------12-----------12-------12--------------12-------12-----------11H12L11----11-|
   |-14-14-14-14----14-14-----12-12-12----12-12-----10-10-10-10----10-10-----12-12-12----------12----|
   |-------------------------------------------------------------------------------------------------|

   |-------------------------------------------------------------------------------|
   |-------------------------------------------------------------------------------|
x1 |-------------------------------------------------------------------------------|  #20
   |---------------12-------12-----------12-------12--------------12---------------|
   |---14-14-14-14----14-14-----12-12-12----12-12-----10-10-10-10----10-10-10-12---|
   |-------------------------------------------------------------------------------|

   Guitar 2

Repeat #6 4 times.

Play #3 three times minus the first note.
Play #18 minus the last note.

   Guitar 1

Repeat #2 twice with repeats.

|-----------------------------|
|-----------------------------|
|---------------12-11---------|  #21
|---------12-14-------14-12---|
|---12-14---------------------|
|-----------------------------|

Fin. 

Story Of The Year — Until The Day I Die

 Artist:Story of the year
Song:Until the day i die
Tuning: Drop D

This is 100% correct! If u can find any mistakes E-mail me:wingzero_2G@msn.com

(Guitar1)Intro:
e|-------------------------------------------------------------------------|
B|-------------------------------------------------------------------------|
G|--------------14------------------------14--------------Play-------------|
D|-----12----12----12----12------12----12----12----12-----These------------|
A|--14----14----------14------------14----------14--------9-times----------|
D|-------------------------------------------------------------------------|
PM..............   .......................   ..........

(Guitar2)Intro:!Play these chords after guitar1 played intro twice!
    until the day I die~~~~~I spill my heart for u~~~~
e|--0--0-0--0--0--0~~---0-0---0--0-0--0--0-0--0--0-------------------------|
B|--1--1-1--0--0--1~~---1-0---1--1-1--0--0-1--1--0------Play these twice---|
G|--2--2-2--0--0--0~~---0-0---2--2-2--0--0-0--0--0-------------------------|
D|--3--3-3--2--2--2~~---2-2---3--3-3--2--2-2--2--2-------------------------|
A|--0--0-0--2--2--3~~---3-2---0--0-0--2--2-3--3--2-------------------------|
D|--0--0-0--0--0--0~~---0-0---0--0-0--0--0-0--0--0-------------------------|

Before Verse:
Both Guitar
e|-------------------------------------------------------------------------|
B|-------------------------------------------------------------------------|
G|-------------------------------------------------------------------------|
D|--121212-121212-1111-111111-777-777-77-777-------Play these tiwce--------|
A|---9-9-9--9-9-9--9-9--9-9-9-555-555-55-555-------------------------------|
D|---9-9-9--9-9-9--9-9--9-9-9-555-555-55-555-------------------------------|

Verse1:
Guitar1 plays intro without stoping
Guitar2 play these chords
e|----------------------------------------play-these-chords-after-guitar1---
B|----------------------------------------played-intro-four-times-then-stop-
G|---------------------77777777-----------and-let-G1(Guitar1)play-intro-once
D|-99999999--55555555--77777777--77777777-then-G2-play-these-chords-twice---
A|-99999999--55555555--55555555--77777777-again-----------------------------
D|-99999999--55555555------------77777777-----------------------------------
PM........................................let go Pm for the last two chords
                                          when playing the last time!

Chours:
Both Guitar
e|---------------------------------------------------|---------------------|
B|---------------------------------------------------|---------------------|
G|---------------------------------------------------|---------------------|
D|-555--777--121212111111--Play-three-times-then-end-|--555--777-----------|
A|-555--777---9-9-9-9-9-9--------with-this-----------|--555--777-----------|
D|-555--777---9-9-9-9-9-9----------------------------|--555--777-----------|

Verse2:
Both
e|-------------------------------------------------------------------------|
B|-------------------------------------------------------------------------|
G|---------------------77777777--------------------------------------------|
D|-99999999--55555555--77777777--77777777-----Play-these-twice-------------|
A|-99999999--55555555--55555555--77777777-----then-play-it-all-------------|
D|-99999999--55555555------------77777777-----PM-Twice---------------------|
PM.... ...   ... ...   ... ...   ... ...

That's Basically what the song plays!Have Fun 
Аккорд D

Story Of The Year — Until The Day I Die

 ----------------------------------------------------------------------------
Until The Day I Die - Story of The Year
----------------------------------------------------------------------------
Tabbed by:twiztdskatr
Email: twiztdskatr@hotmail.com

This is as close as I could get, the lead parts were hard to identify. 

Tuning:
Ryan Phillips - Guitar 2 (Lead) - Drop D
Phillip Sneed - Guitar 1 (Rhythm) - Standard

Guitar 1 Intro
0:01-0:25 Distortion 
(Palm Muted)
e|-------------------------------------------------------------------------|
B|----10------10-----------------------------------------------------------|
G|-7-7--7-77-7--7-7--------------------------------------------------------|
D|9-9----9--9----9---------------------------------------------------------|
A|-------------------------------------------------------------------------|
E|-------------------------------------------------------------------------|

Guitar 1 Verse 1
0:25-0:36
e|-------------------------------------------------------------------------|
B|-------------------------------------------------------------------------|
G|999-999-555-555-777-777-77-77--------------------------------------------|
D|999-999-555-555-777-777-77-77--------------------------------------------|
A|777-777-333-333-555-555-55-55--------------------------------------------|
E|-------------------------------------------------------------------------|

Guitar 2 Verse 1
0:25-0:36
e|--------------------------------------------------|----------------------|
B|151515x151515x141414x141414-----------------------|----------------------|
G|xxxxxxxxxxxxxxxxxxxxxxxxxxx141414x141414x1414x1414|--7-7h9---------------|
d|121212x121212x121212x141414xxxxxxxxxxxxxxxxxxxxxxx|-9-----9--------------|
A|---------------------------121212x121212x1414x1212|----------------------|
D|--------------------------------------------------|----------------------|

Guitar 1
0:36-1:10 
Repeat Intro W/ Distortion

Guitar 2 Verse 2
0:47-1:00 
(Palm Muted)
e|-----------------------------------|-------------------------------------|
B|-----------------------------------|-------------------------------------|
G|-----------------------------------|-7-----------------------------------|
d|99999999-77777777-0000000000000000-|-7-(Let Ring)------------------------|
A|99999999-77777777-0000000000000000-|-9-----------------------------------|
D|99999999-77777777-0000000000000000-|-------------------------------------|

Pick Scrape

Guitar 1 Chorus
(1:10-1:30}
e|-------------------------------------------------------------------------|
B|-------------------------------------------------------------------------|
G|--------222--44444444----------------------------------------------------|
d|---555--222--44444444----------------------------------------------------|
A|---555--000--22222222----------------------------------------------------|
E|---333-------------------------------------------------------------------|

Guitar 2 Chorus
(1:10-1:30)
e|----------------------|--------------------------------------------------|
B|----------------------|-9h10p9-9h10p9-9h10p9-----------------------------|
G|--------222--44444444-|--------------------------------------------------|
d|---555--222--44444444-|--------------------------------------------------|
A|---555--000--22222222-|--------------------------------------------------|
E|---555----------------|--------------------------------------------------|

Guitar 1
Repeat Intro

Guitar 2
Repeat Verse 2

Guitar 1
Repeat Chorus

Guitar 2
Repeat Chorus

Guitar 1 Verse 3
e|-----------------------------------|
B|-----------------------------------|
G|-----------------------------------|
d|1111-99-7--------------------------|
A|1111-99-7-(Let Ring)---------------|
E|9-9--77-5--------------------------|

Guitar 2 Verse 3
e|-----------------------------------|
B|-----------------------------------|
G|-----------------------------------|
d|9-9-77-5---------------------------|
A|9-9-77-5-(Let Ring)----------------|
D|9-9-77-5---------------------------|

Guitar 1
Repeat Intro

Guitar 2
e|-----------------------------------|-------------------------------------|
B|-----------------------------------|-------------------------------------|
G|9h10p9-9-10-7----------------------|-------------------------------------|
d|-----------------------------------|-------------------------------------|
A|-----------------------------------|-------------------------------------|
D|-----------------------------------|-------------------------------------|

Long Silent Part

Guitar 1
Repeat Chorus

Guitar 2
Repeat Chorus

Guitar 1
Repeat Verse 1

Guitar 2
Repeat Verse 1

Guitar 1
Repeat Verse 3 

Guitar 2
Repeat Verse 3

~Peace~ 
Аккорд D

Story Of The Year — Until The Day I Die

 Tuning g,d,a,e,b standard five string

Im sure this is not totaly correct but im trying 🙂

THIS IS A FAST SONG! Dobble the first part up i think it souds beter 

G|--------------------------------------------------------------------------
D|--------------------------------------------------------------------------
A|22-22-22------------------------------------------------------------------
E|---------33-33-33---------------------------------------------------------
B|--------------------------------------------------------------------------

Play 2 or 3 times

I die too.................
G|--------------------------------------------------------------------------
D|--------------------------------------------------------------------------
A|22222222222222222222222222222222222222222222222222222222222222222222222222
E|--------------------------------------------------------------------------
B|--------------------------------------------------------------------------

Until it alawys does...

G|--------------------------------------------------------------------------
D|--------------------------------------------------------------------------
A|222222--------------------------------------------------------------------
E|------333333-5555555------------------------------------------------------
B|--------------------------------------------------------------------------

Im felling lazy today so u can figure the rest out it is basically the same notes
played different and the last note of the song is on the E string 3rd fret and
that is basically it. Have fun By -Dodd- 
Аккорд AАккорд E