Портал для гитаристов
gtars.ru

Банда Москвы — Живи, Россия моя

 Основная тема:

     C                          Em
E||--------------------------|--------------------------|
H||-----1--------1--------1--|-----0--------0--------0--|
G||--------0--------0--------|--------0--------0--------|
D||-----------2--------2-----|-----------2--------2-----|
A||--3-----------------------|--2-----------------------|
E||--------------------------|--------------------------|
     
     Am                                                 
  |--------------------------|--------------------------|
  |-----1--------3--------1--|--------0--------0--------|
  |--------2--------2--------|--2--------2--------2-----|
  |-----------2--------2-----|-----2--------2--------2--|
  |--0-----------------------|--------------------------|
  |--------------------------|--------------------------|

     C                Em
Над нашей страной сгущаются тучи
     Am
К победе нам заслоняя путь
      C                  Em
Хоть каждый новый день старого круче
        Am
Но с пути борьбы мы не должны свернуть

      F               G
	Никогда не погаснет пламя
            E         Am
	Священного огня
            F                  G
	Мы будем бороться за твою свободу
           E          Am
	Живи Россия моя 
            F                  G
	Мы будем подниматься снова и снова
               E                  Am
	Пусть мир будет против меня
           F             G
	И мы умрем за тебя Россия
           E          Am
	Живи Россия моя

Над миром рассвет
Занимается новый
И вот огнем
Полыхает заря
Народ на боьбу
Поднимается снова
Пусть будет свободна
Наша земля

	  Припев

Слава храбрым
Белым войнам
Погибшим в этом
Смертельном бою
Они не смогли
Предать свою отчизну
И спасли
Россию свою

	  Припев 
Аккорд CАккорд EmАккорд AmАккорд FАккорд GАккорд E