Портал для гитаристов
gtars.ru

Creedence Clearwater Revival — Wholl Stop The Rain

 Easy as pie

G - 32xxx3
C - x32x1x
Em- x22xxx
D - xxx232
Am- xx221x


 
Guitars 2 and 3: G for about 4 times under this that guitar 1 plays
|------3--------------3-------------3---------3------3------3-
|0-----------0---------------0-----------0--------0------0----
|-------------------------------------------------------------
|-------------------------------------------------------------
|-------------------------------------------------------------
|-------------------------------------------------------------

 Then at 3rd time guitar one plays, go to Em then C.  The chorus goes C , D, Em, D. 
there is an Am somewhere when he says Crowd something.  Thats pretty much the whole damn thing. 
Аккорд GАккорд CАккорд Em-Аккорд DАккорд Am-Аккорд EmАккорд Am

Creedence Clearwater Revival — Wholl Stop The Rain

 Creedence Clearwater Revival
Who'll stop the rain
This tab written and submitted by Aleksi Hahko
Standard tuning

Very simple song.

Chords

    EADGBE
G   320003
C   032010
Bm  X24432
D   X00232
Am  002210
Em  022000

Intro (G and Em played in the background)

E|-------3-------3-----------3-------3----------3-------3----------|
B|-----0-------0-----------0-------0----------0-------0------------|
G|---0-------0-----------0-------0----------0-------0--------------|
D|------------------------------------0----------------------------|
A|-----------------------------------------------------------------|
E|-3-------3--------2-0--------0----------3-------3----------------|

If you don't have an another guitar backing you up in the intro 
(I don't) just play the single notes in the E-string and G.

Here it goes

  G                  C                    G
  Long as I remember the rain been comin' down
  G                         C                G
  Clouds of mystery pourin' confusion on the ground
  
  C                    G
  Good men through the ages 
  C                  G
  Tryin' to find the sun
  C            D
  And I wonder still I wonder
  Em                      G
  Who'll stop the rain

  G                            C                G
  I went down Virginia seeking shelter from the storm
  G                Bm      C                 G
  Caught up in the fable I watched the tower grow  

  C                   G
  Five-year plans and new deals
  C                 G
  Wrapped in golden chains
  C             D
  And I wonder, still I wonder
  Em                      G
  Who'll stop the rain

  Break:

  G-D   Am-C-Em   D-G


  G                          C                  G
  Heard the singers playin', how we cheered for more
      G                  Bm           C             G
  The crowd had rushed together, just tryin to keep warm

  C                   G
  Still the rain kept pourin'
  C            G
  Fallin on my ears
  C             D
  And I wonder, still I wonder
  Em
  Who'll stop the rain...

  Repeat intro pattern until fadeout 
Аккорд GАккорд CАккорд BmАккорд DАккорд AmАккорд EmАккорд G-DАккорд C-EmАккорд D-G

Creedence Clearwater Revival — Wholl Stop The Rain

 Easy song, fun to play
Tuning:Standard
play chord at beginning of each measure

Intro:__G___/__G___/__Em___/__Em___/
      __G___/__G___/     

Verse:__G___/__G___/__C___/__G___/
      __G___/__G___/__C___/__G___/
 
Chorus:__C___/__G___/__C___/__G___/
       __C___/__D___/__Em___/__G___/

Fill:__G___/

Verse again

Chorus again

Fill again

Bridge:__C__G_/__D___/_Am__C__/__Em__(D)_/
       __G___/__G___/ 

Verse Again

Chorus again

Outro:__G___/__G___/__Em___/__Em___/