Портал для гитаристов
gtars.ru

Croce Jim — Ill Have To Say I Love You

 I'll have to say I love You
by Jim Croce
Transcribed by Steven Jaranilla (sjvhynce@yahoo.com)


   Intro & Verse

  e|-------0-----0--------|-------4----7-4------|------2-----5-2------|
  B|-------2-----2-----2--|-------5--------5----|------3---------3----|
  G|----1------1-------1--|----4----4--------4--|----2---2---------2--|
  D|----------------------|---------------------|---------------------|
  A|--0-------------0-----|--4------------------|--2------------------|
  E|---------0------------|---------------------|---------------------|

  e|--------1-------0-----|
  B|------3-------3-------|
  G|----2-------1---------|
  D|--0-------2-----------|
  A|----------------------|
  E|----------------------|

   Chorus

  e|-------2-----2--------|------3------3-------|------0-----0-----0--|
  B|-------3-----3--------|------1------1-------|------2-----2-----2--|
  G|----2------2-----2----|----2------2------2--|----4-----4----------|
  D|--0------0-----0------|--1------1------1----|---------------------|
  A|----------------------|---------------------|--4------------4-----|
  E|----------------------|---------------------|--------0------------|

   |-------2--------2----------0------0----------0------0-------------|
   |-------2--------3----------2------2---2------0------0---0---------|
   |--------------2----2-----2------2-----2----1------1-----1---------|
   |-----------0------------------------------------------------------|
   |----4-----------------0-------------0----2------------2-----------|
   |--2---------------------------0----------------0------------------|

   |------2------2-------------0-------0--------|
   |------3------3----3--------2-------2----2---|
   |----2------2------2------2-------2------2---|
   |--0-------------0---------------------------|
   |---------0-------------0--------------0-----|
   |-------------------------------0------------|

   That's It... Enjoy! 

Croce Jim — Ill Have To Say I Love You

                     I'll Have to say I love you
                             in a song
                             Jim Croce

Tab by omanyen@fusemail.com

INTRO:( same as 1st verse )

well I                          I hope I 
know its kinda    late          didn't        wake      you
----------------|--------------|-------------|-----2--|-------4-----|
----2-----2-----|---5----5-----|---3----3----|-------3|-3-/-5---5---|
------2-----2---|-----6----6---|-----4---4---|---2----|-----------4-|
----------------|------6-------|------4------|-0------|-4-/-6-------|
-0------------0-|-4----------4-|-2---------2-|--------|-------------|
--------0-------|--------------|-------------|--------|-------------|
                 
                  ( Repeat tab for 2nd verse )
2nd verse:
But there's something that I just gotta say, I know you'll understand


everytime I tried to  |words just|wrong.So I,ll have| I love you
          tell you the|came out  |     to say       |


-----2---2-|----2--2-|----4----4-|-----2--|------2---|---4----4-----|
-3----3---3|-2---2--2|-5----5---5|-3-----2|-----2-2--|5----5----5---|
---2-------|---2-----|---6----6--|---2----|----2---2-|--4-----------|
-4-----4---|---------|-----------|-0------|---4-----4|6-----6-------|
-----------|-4----4--|-4---------|-------0|3h4-------|--------------|
-----------|---------|-----------|--------|----------|--------------| 


in a song        (   Bridge to next verse  )


----2--2h3r2---|----------------------------------------------------|
-3---3------3-2|----------------------------------------------------|
---2-----------|------------2---------------------------------------|
-4-------------|---0--0---0-----------------------------------------|
--------------0|------------0---------------------------------------|
---------------|-0---2--4-------------------------------------------|


LEAD:  /=slide  x=muff with left thumb

-----------------|-------------|--------5-7-7/9|-10-9-7-5-4---------|
----------5-5-7-5|-3-2---------|-------5-------|-x---------7-5-5----|
---2--4/6--------|-x--4-2-4/6-4|--2-4/6--------|-x------------6-642-|
-4---------------|-x-----------|-4-------------|-x-----------------4|
-----------------|-x-----------|---------------|-x------------------|
-----------------|-x-----------|---------------|-x------------------|

This is 100 % accurate. Any questions, comments or complaints
feel free to E-mail me or post a thread at this sight.