Портал для гитаристов
gtars.ru

Croce Jim — Time In A Bottle

 Verse: 
   Dm           Dmmaj7  Dm7    Dm6  
If I could save time in a bottle 
    Gm6                          A7  
The first thing that I'd like to do 
      Dm         Dm7      Bb -       Gm7    Dm  
Is to save every day till eternity passes away 
        Gm              A7  
Just to spend them with you. 
 
   Dm           Dmmaj7  Dm7    Dm6  
If I could make days last forever 
    Gm6                          A7  
If words could make wishes come true 
      Dm         Dm7      Bb -       Gm7    Dm  
I'd save every day like a treasure and then 
        Gm              A7  
Again, I would spend them with you. 
 
Chorus: 
          D              Dmaj7  
But there never seems to be enough time 
   D6                D                   G       Gmaj7 Em7 A7  
To do the things you want to do Оnсе you find them 
     D             Dmaj7  
I've looked around enough to know 
     D6               D                  G       Gmaj7 Em7 A7  
That you're the one I want to go through time with. 
  
Verse: 
   Dm          Dmmaj7   Dm7  Dm6  
If I had a box just for wishes 
    Gm6                        A7  
And dreams that had never come true 
    Dm           Dm7   Bb -             Gm7 Dm  
The box would be empty except for the memory 
       Gm             A7  
Оf how they were answered by you  
 
Chorus: 
          D              Dmaj7  
But there never seems to be enough time 
   D6                D                   G      Gmaj7 Em7 A7  
To do the things you want to do Оnсе you find them 
     D             Dmaj7  
I've looked around enough to know 
     D6               D                  G        Gmaj7 Em7 A7  
That you're the one I want to go through time with.  
 
Verse: 
            D           Dmaj7  
But there never seems to be enough time 
   D6                D                   G      Gmaj7  
To do the tings you want to do once you find them 
   Em7       A7             D  Dmaj7  
I've looked around enough to know 
      D6               D                  G  
That you're the one I want to go through time with. 

Outro: Gmaj7 Em7 A7 Dm       
Аккорд DmАккорд Dmmaj7Аккорд Dm7Аккорд Dm6Аккорд Gm6Аккорд A7Аккорд BbАккорд Gm7Аккорд GmАккорд DАккорд Dmaj7Аккорд D6Аккорд GАккорд Gmaj7Аккорд Em7

Croce Jim — Time In A Bottle

 TIME IN A BOTTLE
Jim Croce


VERSE:

(standard tuning)guitar 1

e|-------1-------|-------1------|-------1------|-------1-----|
b|-----3---3-----|-----3---3----|-----3---3----|-----3---3---|
g|---2-------2---|---2-------2--|---2-------2--|---0-------0-|
d|-0-------------|--------------|--------------|-------------|
a|---------------|-4------------|-3------------|-2-----------|
e|---------------|--------------|--------------|-------------|


e|-------0-------|--------------|-0---3----1---|---0h2-------|
b|-----3---3-----|-3--2----2--3-|-----3----2---|-------------|
g|---0-------0---|-------3------|--------------|-------------|
d|---------------|--------------|--------------|-------------|
a|-1-------------|-1--0----0--1-|-4------------|-------------|
e|---------------|--------------|--------------|-------------|

guitar2

e|---10---10---10|---9----9----9|---8----8----8|--7---7---7--|
b|10---10---10---|10---10---10--|10---10---10--|8---8---8----|
g|---------------|--------------|--------------|-------------|
d|---------------|--------------|--------------|-------------|
a|---------------|--------------|--------------|-------------|
e|---------------|--------------|--------------|-------------|


e|-6--6-6-6-6--6-|--------------|-0---3----1---|---0h2-------|
b|8--5-6-8-6--5--|-3--2----2--3-|-----3----2---|-------------|
g|---------------|-------3------|--------------|-------------|
d|---------------|--------------|--------------|-------------|
a|---------------|-1--0----0--1-|-4------------|-------------|
e|---------------|--------------|--------------|-------------| 
Аккорд A

Croce Jim — Time In A Bottle

 if you have any suggestions, please e-mail me @  tennisqueen73@hotmail.com



E--------5-----5----|-------5-----5----|-------5-----5----
B-----6-----6-----6-|----6-----6-----6-|----6-----6-----6-
G--7----------------|-6----------------|-5----------------
D-------------------|------------------|------------------
A-------------------|------------------|------------------
E-------------------|------------------|------------------
   4  3  2  3  2  3   4  3  2  3  2  3   1  3  2  3  2  3  

E--------5-----5----|-3-----0-----1----|-3-----1-----0----
B-----6-----6-----6-|-3--------3-----3-|----3-----3-----3-
G--4----------------|-3----------------|------------------
D-------------------|-roll-------------|------------------
A-------------------|------------------|------------------
E-------------------|------------------|------------------
   1  3  2  3  2  3   4        3  1  3   4  3  1  3     3
                      3
                      2

E--5-----7-----9----|-12----10----9----|----------1-------
B-------------------|------------------|-------3--------3-
G--6-----7-----9----|-12----10----9----|----2--------2----
D-------------------|------------------|-0----------------
A-------------------|-----------(hold)-|------------------
E-------------------|------------------|------------------
   1     3     3      3     3     3         2  3  1  2  3
   2     2     2      2     2     2

E-----------1-------|----------1-------|----------1-------
B--------2--------2-|-------1--------1-|-------0--------0-
G-----2--------2----|----2--------2----|----2--------2----
D--0----------------|-0----------------|-0----------------
A-------------------|------------------|------------------
E-------------------|------------------|------------------
      2  3  1  2  3      2  1  1  2  1      2  0  1  2  0

E-----------3-------|----------3-------|------------------
B--------3--------3-|-------3--------3-|-2-----3-----5----
G-----3--------3----|----3--------3----|------------------
D--0----------------|-0----------------|------------------
A-------------------|------------------|-0-----2-----4----
E-------------------|------------------|------------------
      2  3  4  2  3      2  3  4  2  3   2     3     3
                                               1     1

E-------------------|----------1-------|----------1-------
B--8-----6-----5----|-------3--------3-|-------1--------1-
G-------------------|----2--------2----|----2--------2----
D-------------------|-0----------------|-0----------------
A--7-----5-----4----|------------------|------------------
E-------------------|------------------|------------------
   3     3     3         2  3  1  2  3      2  1  1  2  1

E-----------3-------|----------3-------|----------1--------
B--------3--------3-|-------3--------3-|-------3--------3--
G-----3--------3----|----3--------3----|----2--------2-----
D--0----------------|-0----------------|-0-----------------
A-------------------|------------------|-------------------
E-------------------|------------------|-------------------
      2  3  4  2  3      2  3  4  2  3      2  3  1  2  3

E-----------3-------|------------------|-------------------
B--------3--------3-|-2-----3-----5----|-2~----0-----------
G-----3--------3----|------------------|-------------2-----
D-------------------|------------------|-------------------
A-------------------|-0-----2-----4----|-0-----------------
E--3----------------|------------------|-------------------
   1  1  1  1  1  1   2     3     3      2           2
                            1     1