Портал для гитаристов
gtars.ru

Cross Borns — A Hetedik

 Hetedik
E1----------------------------------------------------
H-----------------------------------------------------
G-----------------------------------------------------
D--0-0-5-0-0-7-0-0-8-0-0-10-0-0-5-0-0-7-3-3-3-5-5-5-3-
A-----------------------------------------------------
E6----------------------------------------------------
Riff1
E1--------------------------------------------------------------
H---------------------------------------------------------------
G---------------------------------------------------------------
D----5/7-7--7-7-----5/7-7--7-7-----5/7-7--7-7-----5/7-7--7--7-7-
A----3/5-5--5-5-----3/5-5--5-5-----3/5-5--5-5-----3/5-5--5--5-5-
E6--------------------------------------------------------------

E1--------------------------------------------------------------
H---------------------------------------------------------------
G---------------------------------------------------------------
D---------------------------------------------------------------
A---7/8-8--8-8---7/8-8--8-8---7/8-8--8-8---7/8-8--8-8-----------
E6--5/6-6--6-6---5/6-6--6-6---5/6-6--6-6---5/6-6--6-6-----------

Refren
E1-------------------------------------------------------------
H--------------------------------------------------------------
G--------------------------------------------------------------
D---2-2-2-2-2-2-2-2-2-2-2-3---2-2-2-2-2-2-2-2------------------
A---0-0-0-0-0-0-0-0-0-0-0-1---0-0-0-0-0-0-0-0--3-5-------------
E6---------------------------------------------1-3-------------

Szуlу/A alatt Riff1 x4

Szуlу/B (Ritmus):
E1----------------------------------------------------
H-----------------------------------------------------
G-----------------------------------------------------
D----7------------------------------------------------ X4
A----5--10-8-7--7-8-10-7------------------------------
E6-------8-6-5--5-6--8-5------------------------------ 
Аккорд D----5Аккорд A----3Аккорд A---7Аккорд E6--5Аккорд AАккорд B