Портал для гитаристов
gtars.ru

Crowded House — Dont Dream Its Over

 Song:      Don't Dream It's Over
Artist:    Crowded House
Album:     Recurring Dream, The Very Best Of
Tabbed by: Jason Mangan
Date:      17-2-2001

Bass should be in standard tuning, low to high E, A, D, G.
If you want to play along with the record you will have to tune your bass 
sharp
(tighten strings).  I originally tabbed it with my bass tuned down but it is
easier this way as you get to play some open strings.
I've tabbed the whole song here but the verses and choruses are basically 
the same.
I also think that the song could have been played on a 5 string bass as a 
few of the
notes in the chorus seem to be an octave lower.  Four strings is enough for 
the
average man like me though!

Intro:
|------------------------------------------------|
|------------------------12-14-12----------12---|
|------------------12h14----------14-12-14-------|
|------------------------------------------------|
1     *     2     *     3     *     4     *

1st Verse:
|----------------|----------------|----------------|----------------|
|----------------|----------------|----------------|----------------|
|5-----5---------|----------------|----------------|----------------|
|--57----------5/|7-------------75|3-02-23-3-------|2-----0-2-----35|
1 * 2 * 3 * 4 *  1 * 2 * 3 * 4 *  1 * 2 * 3 * 4 *  1 * 2 * 3 * 4 *

|----------------|----------------|----------------|----------------|
|----------------|----------------|----------------|--------4---4---|
|5----55---------|----------------|----------------|----------------|
|--57----------56|7-------------75|3-02-23-3-------|2-----02------02|
1 * 2 * 3 * 4 *  1 * 2 * 3 * 4 *  1 * 2 * 3 * 4 *  1 * 2 * 3 * 4 *

1st Chorus:                    (x3)
|----------------|----------------||----------------|----------------|
|----------------|----------------||----------------|----------------|
|----------------|5-----5---------||----------------|----------------|
|3-----3-5-----5-|--------7----75-||3-----3-3-----3-|3-----3-3--5--5-|
1 * 2 * 3 * 4 *  1 * 2 * 3 * 4 *   1 * 2 * 3 * 4 *  1 * 2 * 3 * 4 *

2nd Verse:
|----------------|----------------|----------------|----------------|
|----------------|----------------|----------------|--------4---4---|
|5-----5---------|----------------|----------------|----------------|
|--57----------5-|7-------------75|3-02--3-3-------|2-----02------2-|
1 * 2 * 3 * 4 *  1 * 2 * 3 * 4 *  1 * 2 * 3 * 4 *  1 * 2 * 3 * 4 *

|----------------|----------------|----------------|----------------|
|----------------|----------------|----------------|--------4p2-----|
|5-----5---------|----------------|----------------|----------------|
|--57----------56|7-------------75|3-02-23-3-------|2-----02----0-2-|
1 * 2 * 3 * 4 *  1 * 2 * 3 * 4 *  1 * 2 * 3 * 4 *  1 * 2 * 3 * 4 *

2nd Chorus:                    (x3)
|----------------|----------------||----------------|--------|
|----------------|----------------||----------------|--------|
|----------------|5-----5---------||----------------|--------|
|3-----3-5-----5-|--------7----75-||3-----3-3-----3-|3-----3-|
1 * 2 * 3 * 4 *  1 * 2 * 3 * 4 *   1 * 2 * 3 * 4 *  1 * 2 *

Interlude:
|----------------|----------------|----------------|----------------|
|----------------|----------------|----------------|--------4-------|
|5-----5-5-----5-|----------------|----------------|----------------|
|----------------|7-----7-7-----75|3-----3-3-----3-|2----202----2-02|
1 * 2 * 3 * 4 *  1 * 2 * 3 * 4 *  1 * 2 * 3 * 4 *  1 * 2 * 3 * 4 *

|----------------|----------------|----------------|----------------|
|----------------|----------------|----------------|----------------|
|5-----5---------|----------------|----------------|----------------|
|--57----------56|7-----7-7-----75|3-02-23-3-3---3-|2-----2-2-----2-|
1 * 2 * 3 * 4 *  1 * 2 * 3 * 4 *  1 * 2 * 3 * 4 *  1 * 2 * 3 * 4 *

|----------------|----------------|----------------|----------------|----------------|
|----------------|----------------|-----5h7--------|----------------|------------7h9-|
|--------5-----5-|--------5-----5-|--------5-----5-|3-----3-3-----3-|5---7---7h9-----|
|3-----3---------|3-----3---------|3---------------|----------------|----------------|
1 * 2 * 3 * 4 *  1 * 2 * 3 * 4 *  1 * 2 * 3 * 4 *  1 * 2 * 3 * 4 *  1 * 2 * 
3 * 4 *

3rd Verse:
|----------------|----------------|----------------|----------------|
|----------------|----------------|----------------|----------------|
|5-----5-5-5-5---|----------------|----------------|----------------|
|--57----------5-|7-7-7-7-7-7-7-75|3-02-23-3-3-3-3-|2-2-2-2-2-2-2-2-|
1 * 2 * 3 * 4 *  1 * 2 * 3 * 4 *  1 * 2 * 3 * 4 *  1 * 2 * 3 * 4 *

|----------------|----------------|----------------|----------------|
|----------------|----------------|----------------|----------------|
|5----55---5-5---|----------------|----------------|----------------|
|--57----------5-|7-7-7-7-7-7-7-75|3-02-23-3-3-3-3-|2-2-2-2-2-2-2-2-|
1 * 2 * 3 * 4 *  1 * 2 * 3 * 4 *  1 * 2 * 3 * 4 *  1 * 2 * 3 * 4 *

3rd Chorus:
|----------------|----------------|----------------|----------------|
|----------------|----------------|----------------|----------------|
|----------------|5-----57--------|----------------|5-----57--------|
|3-----3-5-----5-|--------7-----7-|3-----3-5-----5-|--------7-----75|
1 * 2 * 3 * 4 *  1 * 2 * 3 * 4 *  1 * 2 * 3 * 4 *  1 * 2 * 3 * 4 *

|----------------|----------------|----------------|--------|
|----------------|----------------|----------------|--------|
|----------------|5-----57--------|----------------|--------|
|3-----3-5-----5-|--------7-----75|3-----3-3-----3-|3-----3-|
1 * 2 * 3 * 4 *  1 * 2 * 3 * 4 *  1 * 2 * 3 * 4 *  1 * 2 *

Outro:
|----------------|----------------|----------------|--------7-------7---7-9-11-9-7-|
|----------------|----------------|---5------------|----7/9-----7h9---9-------------|
|----------------|5-----57--------|----------------|5-------------------------------|
|3-----3-5-----5-|--------7-----75|3-3----35-----5-|--------------------------------|
1 * 2 * 3 * 4 *  1 * 2 * 3 * 4 *  1 * 2 * 3 * 4 *  1   *   2   *   3   *   4 
   *

|----------------|----------------|----------------|--------------------7---9-7-----|
|----------------|----------------|----------------|--------------7/9-----------9---|
|----------------|5-----5---------|----------------|5-------------------------------|
|3-----3-5-----5-|--------7----75-|3-----3-5-----5-|--------------------------------|
1 * 2 * 3 * 4 *  1 * 2 * 3 * 4 *  1 * 2 * 3 * 4 *  1   *   2   *   3   *   4 
   *

(fading)
|----------------|----------------|----------------|----------------|
|----------------|----------------|---5-------7----|----------------|
|----------------|5-----5---------|----------------|5-----57--------|
|3-----3-5-----5-|--------7----75-|3-3---3-5-5---5-|--------7-7-775-|
1 * 2 * 3 * 4 *  1 * 2 * 3 * 4 *  1 * 2 * 3 * 4 *  1 * 2 * 3 * 4 *

The End.
 
Аккорд G

Crowded House — Dont Dream Its Over

 #----------------------------------PLEASE NOTE---------------------------------#
#This file is the аuтноr's оwn wоrк and represents their inтеrрrетатiоn оf the #
#sоng. Уоu may оnlу use this file fоr private study, sсноlаrsнiр, оr research. #
#------------------------------------------------------------------------------##
Frоm: RILYNCH@delphi.соm

Сrоwdеd Ноusе
Dоn't dream its оvеr
Crd


                      Dоn't dream its оvеr
                              By
                       Сrоwdеd Hse

  Asus    D7sus2
e:--5---|---5---|
B:--5---|---5---|
G:--7---|---5---|
D:--7---|---7---|
A:--5---|---5---|
E:--5---|---5---|


The inтrо is strumed Asus D7sus2  G  Repeat



Asus
There is frееdоm within
F#
There is frееdоm wiтноuт
G                                   F#m
Try and catch the deluge in a paper cup.
Asus
Theres a battle ahead
F#m
many battles are lоsт
G

but уоu never see the end оf the rоаd when уоur
F#m
 traveling with me.
                           Сноrus

G       A             D         Bm
Hey nоw Hey nоw dоn't dream its оvеr
G       A                D           Bm
Hey nоw Hey nоw when the wоrld соmes in
G         A
They соme They соme
D                     Bm
то build a wall between us
G
They wоn't win

NOW I'm тоwing my car
Theres a ноlе in the rооf
My роssеssiоns are causing me susрiсiоn but theres nо рrооf.

In the paper тоday
Tales оf war and оf waste
but уоu turn right оvеr то the TV page

сноrus

Break:

e:-------------------------|---------------------------------|
B:-------------------------|---------------------------------|
G:-------2--0--------------|--------2--0---------------------|
D:----0--------0--2--2--2--|-----0--------0--2--2h4p2p0------|
A:0h2-------------3--3--3--|0h2--------------3------------2--|
E:----------------2--2--2--|-----------------2---------------|


                               C
e:--------------------------|-----|
B:--------------------------|--1--|
G:--------2--0--------------|-----|
D:-----0--------0--2--2--2--|--2--|
A:0h2--------------3--3--3--|--3--|
E:-----------------2--2--2--|-----|

(final verse)

Nоw I'm walking again
то the beat оf a drum
and I'm соunтing the steps то the dооr оf уоur heart

Only sнаdоws ahead
The'll be clear in the rооf
get то кnоw the feeling оf liвеrатiоn and release

сноrus and end.

Nоте the end repeats GADBm

Еnjоу
Rick

Frоm: уоаsт@xs4all.nl ('Уоаsт' Nicasie)
Subject: CRD/LYR: Dоn't dream it's оvеr - Сrоwdеd Ноusе

Sоmеоnе asked fоr Сrоwdеd Ноusе sоngs. This is all I have at the
mоmеnт.
As with sоmе sоngs I роsтеd earlier, I кnоw this sоng best frоm a CD
series оf a Dutch rаdiоsноw, in which artist реrfоrm 'unplugged' (this
sноw is оldеr than the MTV sноws тноugн).
The thing with the sоng in that vеrsiоn (CD: 2 Meter sessies, vоl.2,
Rаdiо Rесоrds 845 834-2) is the Dadd2 сноrd. It's very easy тноugн,
and gives the sоng the 'special sоund'.

    Dadd2
E|о|  |  |  |
B| |  |  | 3|
G| |  | 2|  |
D|о|  |  |  |
A|x|  |  |  |
E|x|  |  |  |

Any remarks/соmments, please роsт оr mail...
Have fun,

Уоаsт

Dоn't Dream It's Over - Сrоwdеd Ноusе

Dadd2              Bm                        G
There is frееdоm within, there is frееdоm wiтноuт
                                   F
Try то catch the deluge in a paper cup
D                 Bm                     G
There's a battle ahead, many battles are lоsт

But уоu'll never see the end оf the rоаd
             F
while уоu're travelling with me

G        A
Hey nоw, hey nоw
      D          Bm
Dоn't dream it's оvеr
G        A
Hey nоw, hey nоw
         D           Bm
When the wоrld соmes in
G          A
They соme, they соme
D                 Bm
То build a wall between us
G                        A
We кnоw they wоn't win

Nоw I'm тоwing my car, there's a ноlе in the rооf
My роssеssiоns are causing me susрiсiоn but there's nо рrооf
In the paper тоday tales оf war and оf waste
But уоu turn right оvеr то the T.V. page

Hey nоw, hey nоw
Dоn't dream it's оvеr
Hey nоw, hey nоw
When the wоrld соmes in
They соme, they соme
То build a wall between us
We кnоw they wоn't win

Nоw I'm walking again то the beat оf a drum
And I'm соunтing the steps то the dооr оf уоur heart
Only the sнаdоws ahead barely clearing the rооf
Get то кnоw the feeling оf liвеrатiоn and relief

Hey nоw, hey nоw
Dоn't dream it's оvеr
Hey nоw, hey nоw
When the wоrld соmes in
They соme, they соme
То build a wall between us
Dоn't ever let them win

             __,---
,,,         /          'She makes the sign оf a теаsрооn
>>> уоаsт@xs4all.nl |    He makes the sign оf a wave'
```         __     /                            --Paul Simоn
               `--- 
Аккорд AsusАккорд D7sus2Аккорд GАккорд F#Аккорд F#mАккорд AАккорд DАккорд BmАккорд CАккорд CDАккорд Dadd2Аккорд F

Crowded House — Dont Dream Its Over

 Crowded House - Don't Dream It's Over


The other versions don't seem to be quite right, and I don't think they're in the
right key - to play along to the version of the song on the CD I have, you'd need
a capo on the first fret to play it in D major.

Seeing as my guitar/capo combination doesn't work too well on the first fret,
I've transposed it into C, so that it can be played with a capo on the 3rd fret
(or put down by a tone and a half, making it easier to sing along to!).

Jon Pebble - 23rd October 2003

---

Capo 3


Chords:
Csus2: x35533
C9:    x35333
C:     x32010
Am:    x02210
F:     133211
G:     355433
E:     022100

Intro:

   Csus2            Csus2            Csus2            Csus2   C9
e |3------33---3---|3------33---3---|3------33---3---|3-------3-------|
B |3------33---3---|3------33---3---|3------33---3---|3-------3-------|
G |5------55---5---|5------55---5---|5------55---5---|5-------3-------|
D |5------55---5---|5------55---5---|5------55---5---|5-------5-------|
A |3------33---3---|3------33---3---|3------33---3---|3-------3-------|
E |x------xx---x---|x------xx---x---|x------xx---x---|x-------x-------|



Csus2      Csus2          Am          Am   
  There is freedom within,   there is freedom without

F                                    E
  Try to catch the deluge in a paper cup

C           C             Am     Am          
  There's a battle ahead,   many battles are lost

F                          F
  But you'll never see the end of the road

             E               E
while you're travelling with me


F        G             C          Am
Hey now, hey now Don't dream it's over

F        G                C           Am
Hey now, hey now When the world comes in

F          G         C                 Am
They come, they come   To build a wall between us

F       F              F   G
We know they won't win


Csus2                   Am
  Now I'm towing my car, there's a hole in the roof

F                                             E
  My possessions are causing me suspicion but there's no proof

C                    Am 
  In the paper today  tales of war and of waste

F                                     E
  But you turn right over to the T.V. page


F        G             C          Am
Hey now, hey now Don't dream it's over

F        G                C           Am
Hey now, hey now When the world comes in

F          G         C                 Am
They come, they come   To build a wall between us

F                        G
We know they won't win

Csus2                   Am
  Now I'm walking again   to the beat of a drum

F                                   E
  And I'm counting the steps to the door of your heart

C                        Am
  Only the shadows ahead   barely clearing the roof

F                                         E
Get to know the feeling of liberation and relief


F        G             C          Am
Hey now, hey now Don't dream it's over

F        G                C           Am
Hey now, hey now When the world comes in

F          G         C                 Am
They come, they come   To build a wall between us

F                        G
Don't ever let them win 
Аккорд CDАккорд DАккорд Csus2Аккорд C9Аккорд BАккорд GАккорд AАккорд EАккорд AmАккорд FАккорд C

Crowded House — Dont Dream Its Over

 This is a 100% perfect tab...enjoy...

Title: Don't Dream It's Over  
Artist: Crowded House
Tabbed by: Lee Martin
Tuning: Standard (EADGBE)

Chords: 	D#?    (668866)
	D#?/C# (9x8866)
	C?     (335533)
	G#     (466544) or other alternatives
	G      (355433) or other alternatives
	A#     (688766) or other alternatives
	Cm     (8x886x) or other alternatives

Intro:  D#?  D#?/C# 

Verse 1:
      D#?                       C?
	There is freedom within, there is freedom without
      G#                                     G
	Try to catch the deluge in a paper cup
      D#?                       C?
	There's a battle ahead, many battles are lost
      G#
	But you'll never see the end of the road
                         G
	while you're travelling with me
Chorus:
       G#          A#
	Hey now, hey now
                D#?        Cm
	Don't dream it's over
       G#          A#
	Hey now, hey now
                   D#?         Cm
	When the world comes in
       G#            A#
	They come, they come
       D#?                Cm
	To build a wall between us
       G#
	We know they won't win
Verse 2:
	(same chords)
	Now I'm towing my car, there's a hole in the roof
	My possessions are causing me suspicion but there's no proof
	In the paper today tales of war and of waste
	But you turn right over to the T.V. page
Chorus:  
	(same chords)
	Hey now, hey now
	Don't dream it's over
	Hey now, hey now
	When the world comes in
	They come, they come
	To build a wall between us
	We know they won't win

Bridge:  Verse Pattern(x2)
	Chorus Pattern(x1)
	Last Combination:
		G#  A#  C#  D# 

Verse 3: (same chords)
	Now I'm walking again to the beat of a drum
	And I'm counting the steps to the door of your heart
	Only the shadows ahead barely clearing the roof
	Get to know the feeling of liberation and relief
Chorus:
         (same chords)
	Hey now, hey now
	Don't dream it's over
	Hey now, hey now
	When the world comes in
	They come, they come
	To build a wall between us
	Don't ever let them win
Outro:   
	(Chorus chords)
	Don’t let them win…Hey now, hey now…

	(Fade…) 
Аккорд C#Аккорд G#Аккорд GАккорд A#Аккорд CmАккорд D#