Портал для гитаристов
gtars.ru

Crowded House — Fall At Your Feet

 #----------------------------------PLEASE NOTE---------------------------------#
#This file is the author's own work and represents their interpretation of the #
#song. You may only use this file for private study, scholarship, or research. #
#------------------------------------------------------------------------------##
From: marck@nwu.edu (Marck Bailey)
{title:Fall At Your Feet}
{subtitle:N. Finn}

{comment:To match recording, tune guitar down a half-step (all strings)}

{sot}
Intro acoustic guitar riff:
------------------------|---------------------------||
-2---2-2-2---4--4--4--4-|-5---5-5-5---4--4--4--4--4-||
------------------------|---------------------------|| repeat
------------------------|---------------------------||
------------------------|---------------------------||
------------------------|---------------------------||
{eot}

I'm really close ton[C#m]ight [E]
And I feel like I'm [D#m]moving inside [G#]her
Lying in the [C#m]dark [E]
I think that I'm be[D#m]ginning to [G#]know her
Let it [C#m]go [E]
I'll be there when you [A]call

{soc}
Whenever I [E]fall [B]at your [C#m]feet [A]
And you let your [E]tears [B]rain down on [C#m]me [A]
Whenever I [E]touch [B]your slow turning [C#m]pain [A]
{eoc}


You're hiding from me [C#m]now [E]
There's something in the [D#m]way that you're [G#]talking
The words don't sound [C#m]right [E]
But I hear them all [D#m]moving in[G#]side you
[C#m]Go, I'll be waiting when you [A]call

{comment:Chorus}

The finger of [E]blame has turned up[B]on itself
And I'm [C#m]more than willing to [A]offer myself
Do you [E]want my presence or [B]need my help
[C#m]Who knows where that might [A]lead

I fall at your feet
And you let your tears rain down on me
Whenever I [A]fall [E] 

Crowded House — Fall At Your Feet

 Fall at your feet - Crowded House

2nd fret

Verse one

			Am		C
I'm really close	tonight
			Bm			E
And I feel like I'm	moving inside 	her
		Am		C
Lying in the	dark
			Bm		E
I think that I'm 	beginning to	know her
	Am		C
Let it	go
			F
I'll be there when you	call

Chorus

		C	G	Am	F
Whenever I	fall	at your feet
			C	G		Am	F
And you let your	tears	rain down on	me
		C		G		Am	F
Whenever I	touch your	slow turning	pain

Verse three

			Am		C
You're hiding from me	now
				Bm		E
There's something in the	way that you're	talking
			Am		C
The words don't sound	right
			Bm		E
But I hear them all	moving	inside you
Am				F
Go, I'll be waiting when you 	call


Chorus

		C	G	Am	F
Whenever I	fall	at your feet
			C	G		Am	F
And you let your	tears	rain down on	me
		C		G		Am	F
Whenever I	touch your	slow turning	pain

Bridge

		C			G
The finger of	blame has turned up	on itself
	Am			F
And I'm	more than willing to	offer myself
	C			G
Do you	want my presence or	need my help
Am				F
Who knows where that might	lead
	C	G	Am	F
I	fall	at your feet
			C	G		Am	F
And you let your	tears	rain down on	me
		C	G	Am
Whenever I	fall	at your feet

----------------------------------------
mikey
🙂
mikelongworth@lineone.net 
Аккорд AmАккорд CАккорд BmАккорд EАккорд FАккорд G

Crowded House — Fall At Your Feet

 Song:      Fall At Your Feet
Artist:    Crowded House
Album:     Recurring Dream, The Very Best Of
Tabbed By: Jason Mangan 

Bass in standard tuning, low to high E, A, D, G.

Intro:
|----------------|----------------|----------------|----------------|
|----------------|----------------|----------------|----------------|
|3-3-3-5---5-----|3-3-3-----------|3-3-3-5---5-----|3-3-3-----------|
|------------6---|------3---3-6-6-|------------6-6-|------3---3-6---|
1 * 2 * 3 * 4 *  1 * 2 * 3 * 4 *  1 * 2 * 3 * 4 *  1 * 2 * 3 * 4 *

|----------------|----------------|
|----------------|----------------|
|3-3-3-5---5-----|3-3-3-----------|
|------------6-6-|------3---3-6-6-|
1 * 2 * 3 * 4 *  1 * 2 * 3 * 4 *

1st Verse:
|----------------|----------------|----------------|----------------|
|----------------|----------------|----------------|----------------|
|3-3-3-3-3-3-3-5-|6-6-6-6-6-6-6-6-|5-5-5-5-5-5-5-5|------------0-2-|
|----------------|----------------|----------------|3-3-3-3-3-3-----|
1 * 2 * 3 * 4 *  1 * 2 * 3 * 4 *  1 * 2 * 3 * 4 *  1 * 2 * 3 * 4 *

|----------------|----------------|------|----------------|
|----------------|----------------|------|----------------|
|3-3-3-3-3-3-3-5-|6-6-6-6-6-6-6-6-|5-5-5/|----------0-2---|
|----------------|----------------|------|3-3-3-3-3-------|
1 * 2 * 3 * 4 *  1 * 2 * 3 * 4 *  1 * 2  1 * 2 * 3 * 4 *

|----------------|----------------|----------------|----------------|
|----------------|----------------|----------------|----------------|
|3-3-3-3-3-3-3-5-|6-6-6-6-6-6-8-8-|----------------|--------3-3-6-6-|
|----------------|----------------|4-4-4-4-4-4-4-4-|4-4-6-6---------|
1 * 2 * 3 * 4 *  1 * 2 * 3 * 4 *  1 * 2 * 3 * 4 *  1 * 2 * 3 * 4 *

1st Chorus:
|----------------|----------------|----------------|----------------|
|----------------|----------------|----------------|----------------|
|6-6-6-6-6-6-6-6-|----------------|----------------|----------------|
|----------------|6-6-6-6-6-6-6-6-|8-8-8-8-8-8-8-8-|4-4-4-4-4-4-4-4-|
1 * 2 * 3 * 4 *  1 * 2 * 3 * 4 *  1 * 2 * 3 * 4 *  1 * 2 * 3 * 4 *

|----------------|----------------|----------------|----------------|
|----------------|----------------|----------------|----------------|
|6-6-6-6-6-6-6-6-|------------6-6-|----------------|----------------|
|----------------|6-6-6-6-6-6-----|8-8-8-8-8-8-8-8-|4-4-4-4-4-6---6-|
1 * 2 * 3 * 4 *  1 * 2 * 3 * 4 *  1 * 2 * 3 * 4 *  1 * 2 * 3 * 4 *

|----------------|----------------|----------------|----------------|
|----------------|8-8-8-8---------|----------------|----------------|
|6-6-6-6-6-6-6-6-|--------8p6-----|----------------|----------3-6---|
|----------------|------------8-6-|8-8-8-8-8-8-8-8-|4-4-4-4-4-------|
1 * 2 * 3 * 4 *  1 * 2 * 3 * 4 *  1 * 2 * 3 * 4 *  1 * 2 * 3 * 4 *

2nd Verse:
|----------------|----------------|----------------|----------------|
|----------------|----------------|----------------|----------------|
|3-3-3-3-3-3-3-5-|6-6-6-6-6-6-6-6-|5-5-5--5-5-5--|----------0-2-3-|
|----------------|----------------|----------------|3-3-3-3-3-------|
1 * 2 * 3 * 4 *  1 * 2 * 3 * 4 *  1 * 2 * 3 * 4 *  1 * 2 * 3 * 4 *

|----------------|----------------|----------------|
|----------------|----------------|----------------|
|6-6-3-3-3-3-3-5-|6-6-6-6-6-6-6-6-|5-5-5/----0-2---|
|----------------|----------------|--------3-------|
1 * 2 * 3 * 4 *  1 * 2 * 3 * 4 *  1 * 2 * 3 * 4 *

|----------------|----------------|----------------|----------------|
|----------------|----------------|----------------|----------------|
|3-3-3-3-3-3-3-5-|6-6-6-6-6-6-8-8-|----------------|------3---6-8-6-|
|----------------|----------------|4-4-4-4-4-4-4-4-|4-6-------------|
1 * 2 * 3 * 4 *  1 * 2 * 3 * 4 *  1 * 2 * 3 * 4 *  1 * 2 * 3 * 4 *

2nd Chorus and Outro Chorus:
|----------------|----------------|----------------|----------------|
|----------------|----------------|----------------|----------------|
|6-6-6-6-6-6-6-6-|----------------|----------------|----------------|
|----------------|6-6-6-6-6-6-6-6-|8-8-8-8-8-8-8-8-|4-4-4-4-4-4-4-4-|
1 * 2 * 3 * 4 *  1 * 2 * 3 * 4 *  1 * 2 * 3 * 4 *  1 * 2 * 3 * 4 *

Keep repeating this with slight variations. I got tired of trying to
tab it all out note fof note, but I'm sure Nick Seymour can't remember
exactly what he played either!

then...
|----------------|----------------|
|----------------|----------------|
|----------------|6---------------|
|4-4-4-4-4---6---|----------------|
1 * 2 * 3 * 4 *  1 * 2 * 3 * 4 *

 
Аккорд G