Портал для гитаристов
gtars.ru

Cult — Bad Fun

 The Cult - Bad Fun
By:Andrew Mcshan(Guitarguyx182@aol.com)

Intro
e|----------------------------------------------------------------|
B|----------------------------------------------------------------|
G|--3p0--5p0-3p0-5p0-3-5------------------------------------------|
D|----------------------------------------------------------------|
A|----------------------------------------------------------------|
E|----------------------------------------------------------------|

e|----------------------------------------------------------------|
B|----------------------------------------------------------------|
G|----------------------------------------------------------------|
D|-5-5-4--5-------------------------------------------------------|
A|-5-5-4--5-------------------------------------------------------|
E|-3-3-2--3-------------------------------------------------------|
Verse
e|----------------------------------------------------------------|
B|----------------------------------------------------------------|
G|--------------------------------------5~~-5---------------------|
D|-5-~~~--------------------------------5~~-5---5-3-5-5-3-5-------|
A|-5-~~~-----------3-1-------------3-1--3~~-3---5-3-5-5-3-5-------|
E|-3-~~~-3-1-3-1-------3-1-3-1------------------3-1-3-3-1-3-------|
Chorus
e|----------------------------------------------------------------|
B|----------------------------------------------------------------|
G|--3p0--5p0-3p0-5p0-3-5------------------------------------------|
D|----------------------------------------------------------------|
A|----------------------------------------------------------------|
E|----------------------------------------------------------------|

e|----------------------------------------------------------------|
B|----------------------------------------------------------------|
G|-----5----------------------------------------------------------|
D|--5--5----------------------------------------------------------|
A|--5--3----------------------------------------------------------|
E|--3-------------------------------------------------------------|