Портал для гитаристов
gtars.ru

Cult — Fire Woman

 #----------------------------------PLEASE NOTE---------------------------------#
#This file is the author's own work and represents their interpretation of the #
#song. You may only use this file for private study, scholarship, or research. #
#------------------------------------------------------------------------------##
				Fire Women
			       by  The Cult

Lead pattern


-------------------------------------------------------------------------|
-------------------------------------------------------------------------|
------5--7--7>(8)>7vvvvvvv-----5---7-7>(8)>7vvvvvvv---5--7-7>(8)>vvvvv---|
-------------------------------------------------------------------------|
-------------------------------------------------------------------------|
-------------------------------------------------------------------------|

----------------------------------------------|
---8----7---5-----------------         

Cult — Fire Woman

 The Cult - Fire Woman

Hi People- this song kicks ass! Turn on your geetar and get wailing!
Any comments, praise, abuse etc - send it to me at
peatemark@hotmail.com Cheers mark.

Chords
D		X577XX	C		X355XX
G/C		X255XX	F		355XXX
		133XXX


Intro
							Soft	Power!
|--------------|-------------|------------|-3-|-----|---3--------|
|-----------3--|---3---3--3--|----------3-|-3-|-----|---3--------|
|---0----0?-2--|--0---0---2--|---0---0--2-|-0-|-rpt-|---0?--P.S--|
|--0----0---0--|-3---2----0--|--0---0---0-|-0-|-----|---0--------|
|-----3--------|-------------|-----3------|-2-|-----|---2--------|
|-3------------|-------------|-3----------|-3-|-----|---3--------|

Rhythm 1						Fill 1(end v1)
Wound up.						Tell you the truth
|---------|---------|---------|------------|----------------------|
|---------|---------|---------|------------|----------------/1312-|
|-7-7-7-7-|-5-5-5-5-|-5-5-5-5-|5-5-5-7-7---|--------------10------|
|-7-7-7-7-|-5-5-5-5-|-5-5-5-5-|5-5-5-7-7---|-----------/12--------|
|-5-5-5-5-|-3-3-3-3-|-2-2-2-2-|3-3-3-5-5---|----------------------|
|---------|---------|---------|------------|----------------------|

Lead 1 & Chorus riff(with Rhy 1)				1st time
|----------------------|-----------------------|-----|-------|
|------6----------6----|------6-----/8-6-5-----|-----|-------|
|-/5-7----7---/5-7---7-|-/5-7---7----------5-5-|-rpt-|--5/7--|
|----------------------|-----------------------|-----|-------|
|----------------------|-----------------------|-----|-------|
|----------------------|-----------------------|-----|-------|


V1
(Rhy 1)
Wound up, can't sleep, can't do anything right, little honey,
Oh, since I set my eyes on you.
I tell you the truth. (w/Fill 1)

(Rhy 2)
D		              
Twistin' like a flame in a slow dance, baby,
F		
You're driving me crazy.
Come on, little honey, come on now!  (power chords - FF FF)


(Rhy 2)
Twisting . .
D		  		    F			   FF  FF
|------------|-------------|-------------|-------------|-----|---------|
|------6-5---|-----6-565-3-|-----8-6-5---|-----6-565-3-|-----|---------|
|----------7-|---5---------|---7-------7-|---5---------|-rpt-|---------|
|----7-------|-3-----------|-5-----------|-3-----------|-----|---------|
|-5----------|-------------|-------------|-------------|-----|---------|
|------------|-------------|-------------|-------------|-----|---------|

Chorus
(Rhy 2)
D	C	F			C
Fire! 	Smoke, she is a rising!
D				F	C
Fire!   Smoke on the horizon!

(w/Fill 2)
Fire! Smoke, she is a rising!
Fire! Smoke stack lightning!

Fill 2
|------------------------|----------------------------|-----|-------|
|------65----------65----|------65---------65-5-6-8---|-----|-------|
|-/5-7----77---/5-7---77-|-/5-7---77---/5-7--7--------|-Rpt-|--5/7--|
|------------------------|----------------------------|-x 1-|-------|
|------------------------|----------------------------|-----|-------|
|------------------------|----------------------------|-----|-------|


Solo
|------------|------------------------------------------|
|------------|------------------------------------------|
|--------10--|-12--10------10---1210---------10---------|
|-/12--------|-------12-12----12-----1212--12--12-10/12-|
|------------|------------------------------------------|
|------------|------------------------------------------|

|---------------|-----------------1012-----------|
|---------------|-13-12-10--101213------13-13/15-|
|-----10----10--|---------12---------------------|
|-1012--1210?12-|--------------------------------|
|---------------|--------------------------------|
|---------------|--------------------------------|


V2
You shake it up, you're to blame, got me swayin' little honey.
My heart's a ball of burnin' flame.
Oh, yes it is.
Trancing like a cat on a hot tin shack,
Lord, have mercy! Come on little sister, come on and shake it!

Cho
Fire! Smoke, she is a rising!
Fire! Smoke on the horizon!
Fire! Smoke, she is a rising!
Fire! Smoke stack lightning!

Bridge
I was thinking what I've been missing.
I'll tell you truthfully, well.
She's coming close now.
I can feel her.
She's getting close to me.

Cho
Fire! Smoke, she is a rising!
Fire! Smoke on the horizon!
Fire! Smoke, she is a rising!
Fire! Smoke stack lightning! 
Аккорд DАккорд CАккорд G/CАккорд FАккорд FF