Портал для гитаристов
gtars.ru

Cult — She Sells Sanctuary

 -------------------------------------------------------------------------------
		          She Sells Sanctuary - The Cult
-------------------------------------------------------------------------------

Tabbed by: Steve Hardy
Email: dirtyanimal86@hotmail.com

This is only the essential riff!!!


e|---------------------------------------------------------------------------|
B|---------------------------------------------------------------------------|
G|-----------14-----------14----14-----------------14------11----------------|
D|-----------0------------0-----0------------------0-------0-----------------|
A|---------------------------------------------------------------------------|
E|---------------------------------------------------------------------------|

e|---------------------------------------------------------------------------|
B|---------------------------------------------------------------------------|
G|--------12---------11-----7------------7---------7------7-----------------|
D|--------0----------0-------0------------0---------0------0-----------------|
A|---------------------------------------------------------------------------|
E|---------------------------------------------------------------------------|

e|---------------------------------------------------------------------------|
B|---------------------------------------------------------------------------|
G|------------5---------5----7-------------7---------2/----------------------|
D|------------0---------0----0-------------0---------0-----------------------|
A|---------------------------------------------------------------------------|
E|---------------------------------------------------------------------------|

e|---------------------------------------------------------------------------|
B|---------------------------------------------------------------------------|
G|---------12-----11------7----------7-----------7/--------------------------|
D|---------0------0-------0----------0-----------0---------------------------|
A|---------------------------------------------------------------------------|
E|---------------------------------------------------------------------------|

e|---------------------------------------------------------------------------|
B|---------------------------------------------------------------------------|
G|----------12--------11------7-----------7----------------------------------|
D|----------0---------0-------0-----------0----------------------------------|
A|---------------------------------------------------------------------------|
E|---------------------------------------------------------------------------|

Use downstrokes on the beats but upstrokes for the off-beats.


| /  slide up
|   slide down
| h  hammer-on
| p  pull-off
| ~  vibrato
| +  harmonic
| x  Mute note

=============================================================================== 

Cult — She Sells Sanctuary

 Artist:   The Cult
Title:    She Sells Sanctuary
Type:     Bass Tab

Sorry John, but your tab was off by a fret. Move up a fret, like this:
    
    Riff 1 (played with there are no vocals):
    |-----------------|-----------------|-----------------|
    |-----------------|-----------------|-----------------|
    |-6-6-6-6-6-6-6-6-|-6-6-6-6-6-6-6-6-|-4-4-4-4-4-4-4-4-|
    |-----------------|-----------------|-----------------|
      1 & 2 & 3 & 4 &   1 & 2 & 3 & 4 &   1 & 2 & 3 & 4 &
    
    |-----------------|
    |-----------------|
    |-----------------|
    |-4-4-4-4-4-4-4-4-|
      1 & 2 & 3 & 4 &
    
    Riff 2 (played when there are vocals):
    |-----------------|-----------------|-----------------|
    |-----------------|-----------------|-----------------|
    |-6-6-6-6-6-6-6-6-|-6-6-6-6-6-6-6-6-|-4-4-4-4-4-4-4-4-|
    |-----------------|-----------------|-----------------|
      1 & 2 & 3 & 4 &   1 & 2 & 3 & 4 &   1 & 2 & 3 & 4 &
    
    |-----------------|
    |-----------------|
    |-3-3-3-3---------|
    |---------4-4-4-4-|
      1 & 2 & 3 & 4 &

- Teej -