Портал для гитаристов
gtars.ru

Cult — Wild Flower

 #----------------------------------PLEASE NOTE---------------------------------#
#This file is the author's own work and represents their interpretation of the #
#song. You may only use this file for private study, scholarship, or research. #
#------------------------------------------------------------------------------##
From: gjones@cs.man.ac.uk (S94)
Subject: TAB: Wild Flower by The Cult


You'll have to figure out the solo yourself, although it
seems to be just moderate picking with a load of bends
thrown in here and there and probably a few harmonics for
good measure as well. I'll figure it out when I get the
time and if I actually think it's worthwhile. Proably
better off making your own - shouldn't be too hard to
come up with something similar.

Intro:
E|--------------|
B|--4-----4--4--|
G|--4-----4--4--|
A|--4-----4--4--|
D|--2--0--2--2--|
E|--------------|

Verse:
E|--------------------------------------------------------|
B|--4-----4--4----4-----4--4------------------------------|
G|--4-----4--4----4-----4--4----7-----7--7----1-----1--1--|
A|--4-----4--4----4-----4--4----7--5--7--7----2-----2--2--|
D|--2--0--2--2----2--0--2--2----5-----5--5----2--0--2--2--|
E|--------------------------------------------0-----0--0--|


Chorus:
E|--------------------------------------------------------|
B|--4-----4--4----4-----4--4------------------------------|
G|--4-----4--4----4-----4--4----1-----1--1----2--0--2--2--|
A|--4-----4--4----4-----4--4----2-----2--2----2-----2--2--|
D|--2--0--2--2----2--0--2--2----2--0--2--2----0-----0--0--|
E|------------------------------0-----0--0----------------|


Outro:
E|--------------------------------------------------------|
B|--4-----4--4----4-----4--4------------------2-----2--2--|
G|--4-----4--4----4-----4--4----1-----1--1----2--0--2--2--|
A|--4-----4--4----4-----4--4----2-----2--2----2-----2--2--|
D|--2--0--2--2----2--0--2--2----2--0--2--2----0-----0--0--|
E|------------------------------0-----0--0----------------|


Play intro 8 times (intro)
Play verse 4 times (verse 1)
Play chorus 2 times
Play intro 4 times (prelude to verse 2)
Play verse 4 times (verse 2)
Play chorus 4 times
Play solo
Play intro 7 times and then one more B chord
             as the drums come to a stop.
Play outro 6 times and then a B chord to finish off.

This is the basics, there's some chord holding as well of
the E and A5 in the verse and chorus. Just listen to the
CD to hear when they come. 
Аккорд BАккорд EАккорд A5Аккорд CD

Cult — Wild Flower

                               Wild Flower
Performed By: The Cult
LP: Pure Cult

Tabbed By: Lee Spurrell
leespurrell@hotmail.com


    Play Оnе Time (Come in with drummer)                                
G-----------------------------------------------------------------------
D-----------------------------------------------------------------------
A---2--0--2--2-----2--0--2--2-----2--0--2--2-----2--0--2--2-------------
E-----------------------------------------------------------------------
                                                                        

       Verse                                                            
G-----------------------------------------------------------------------
D-----------------------------------------------------------------------
A------2--0--2--2-----2--0--2--2-----5--3--5--5-----7--5--7--7-----2----
E-----------------------------------------------------------------------
                                                                        

                                                                        
G-----------------------------------------------------------------------
D-----------------------------------------------------------------------
A---0--2--2-----2--0--2--2-----5--3--5--5-----7--5--7--7-----2--0--2----
E-----------------------------------------------------------------------
                                                                        

                                                                        
G-----------------------------------------------------------------------
D-----------------------------------------------------------------------
A---2-----2--0--2--2-----5--3--5--5-----7--5--7--7-----2--2--2--2--2----
E-----------------------------------------------------------------------
                                                                        

                                                                        
G-----------------------------------------------------------------------
D-----------------------------------------------------------------------
A---2--2--2--2--2--2--2--5--5--5--5--5--5--7----------------------------
E-----------------------------------------------------------------------
                                                                        

                                     Chorus                             
G-----------------------------------------------------------------------
D-----------------------------------------------------------------------
A-----------------------------------------------------------------------
E------------------------------------7--7--7--7--7--7--7--7--7--7--7----
                                                                        

                                                                        
G-----------------------------------------------------------------------
D-----------------------------------------------------------------------
A-----------------------------------------------------------------------
E---7--0--0--0--0--0--0--0--0--5-----5--5--5--5--5--5--5----------------
                                                                        

                                                    Solo                
G-----------------------------------------------------------------------
D-----------------------------------------------------------------------
A-----------------------------------------------------------------------
E------------------------------------------------------2--2--2--2--2----
                                                                        

                                                                        
G-----------------------------------------------------------------------
D-----------------------------------------------------------------------
A-----------------------------------------------------------------------
E---2--2--2--2--2--2--2--2--2--2--2--2--2--2--2--2--2--2--2--2--2--2----
                                                                        

                                                                        
G-----------------------------------------------------------------------
D-----------------------------------------------------------------------
A-----------------------------------------------------------------------
E---2--2--2--2--2--2--2--2--2--2--2--2--2--2--2--2--2--2--2--2--2--2----
                                                                        

                                                                        
G-----------------------------------------------------------------------
D-----------------------------------------------------------------------
A---2--2--2--2--2--2--2--2--2--2--2--2--2--2--2--2--2--2--2--2--2--2----
E-----------------------------------------------------------------------
                                                                        

                                                                        
G-----------------------------------------------------------------------
D-----------------------------------------------------------------------
A---2--2----------------------------------------------------------------
E---------2-----2-------------------------------------------------------
                                                                        

    Verse After Solo                                                    
G-----------------------------------------------------------------------
D-----------------------------------------------------------------------
A------2--0--2--2-----2--0--2--2-----2--0--2--2-----2--0--2--2-----2----
E-----------------------------------------------------------------------
                                                                        

                                                                        
G-----------------------------------------------------------------------
D-----------------------------------------------------------------------
A---0-----2--2-----2--0--2--2-----2--0--2--2-----0--2-------------------
E-----------------------------------------------------------------------
                                                                        

                      Ride the chorus until the end                     
G-----------------------------------------------------------------------
D-----------------------------------------------------------------------
A-----------------------------------------------------------------------
E---------------------7--7--7--7--7--7--7--7--7--7--7--7--0--0--0--0----
                                                                        

                                                                        
G-----------------------------------------------------------------------
D-----------------------------------------------------------------------
A-----------------------------------------------------------------------
E---0--0--0--0--5-----5--5--5--5--5--5--5-------------------------------
                                                                        

                                           Ending                       
G-----------------------------------------------------------------------
D-----------------------------------------------------------------------
A-----------------------------------------------------------------------
E------------------------------------------7--7--7--7--7--7--7--7--7----
                                                                        

                                                                        
G-----------------------------------------------------------------------
D-----------------------------------------------------------------------
A-----------------------------------------------------------------------
E---7--7--7--0--0--0--0--0--0--0--0--5--5--5--5--5--5--5--5-----5--0----
                                                                        

                                                                        
G-----------------------------------------------------------------------
D-----------------------------------------------------------------------
A-----------------------------------------------------------------------
E---7~~~-----7/3--------------------------------------------------------
                                                                        



========================================================================
==                       TABLATURE ЕХРLАNАТIОN                        ==
========================================================================

----------                ----------                ----t---
----5h8--- Hammeron       ----(8)--- Ghost          ----6--- Tap
----------                ---------- Note           --------
----5p8--- Pulloff        ----------                --------

----------                ----------                -----p--
----5/8--- Slide Up       -----x---- Dead           -----7-- Pop
----------                ---------- Note           --s-----
----58--- Slide Down     ----------                --5----- Slap 

----------                ||------|| Repeat         --------
----5~~~-- Vibrato        ||*----*||                ---5^--- Bend
----------                ||*----*||                --------
----------                ||------||                --------

----------                ----------                --------
-4:------- Time           ----------                --------
-4:------- Signature      ----------                --------
----------                ----------                --------

Rhythm:
  w = whole note            W = dotted whole
  h = half note             H = dotted half
  q = quarter note          Q = dotted quarter
  e = eighth note           E = dotted eighth
  s = sixteenth note        S = dotted sixteenth
  t = 32nd note             T = dotted 32nd
  x = 64th note             X = dotted 64th
  ^ = triplet

========================================================================
==            Created with a demo version of BUCKET О' TAB            ==
==              tablature creation software for Windows               ==
==                  For more info email gse@his.com                   ==
========================================================================
 
Аккорд HАккорд E