Портал для гитаристов
gtars.ru

Cure — A Forest

 Intro:
E---------------------
B---------------------
G---------------------
D---------------------
A---------------------
E--0-12--0-8--0-7--0-8

E-----------------------------------
B-----------------------------------
G-----------------------------------
D-----------------------------------
A-----------------------------------
E--0-12--0-14--0-15--12-10-8-7-5-3-0

Em             G
Come closer and see
C            Am 
See into the trees
Em           G
Find the girl
C            Am  
While you can
Em             G
Come closer and see
C            Am
See into the dark
Em              G
Just follow your eyes
C               Am
Just follow your eyes

Fa# G Em G
 
Em           G
I hear her voice
C            Am
Calling my name
Em            G
The sound is deep
C          Am
In the dark
Em           G
I hear her voice
C             Am
And start to run
Em        G
Into the trees
C         Am
Into the trees

Into the trees

Fa# G Em G

Em           G
Suddenly I stop
C                  Am
But I know it's too late
Em                G
I'm lost in a forest
C        Am
All alone
Em                   G
The girl was never there
C                 Am
It's always the same
Em                     G  
I'm running towards nothing
C                Am
Again and again and again

Fa# G Em G 
Аккорд EmАккорд GАккорд CАккорд Am

Cure — A Forest

 
E-----------------------------------
B-----------------------------------
G-----------------------------------
D----------00-0-000---------22-2-222
A--2-2-22-2-------------------------
E-------------------3-3-33-3--------

  Не уверен относительно Dm. Если есть какие-нибудь
соображения, присылайте.

Am                C   F             Dm
Come closer and see, see into the trees
Find the girl while you can
Come closer and see, see into the dark
Just follow your eyes, just follow your eyes

H-C-F#-C  H-C-F#-F

I hear her voice calling my name
The sound is deep in the dark
I hear her voice and start to run
Into the trees, into the trees

Suddenly I stop, but I know it´s too late
I´m lost in a forest all alone
The girl was never there, it´s always the same
I´m running towards nothing
Again and again and again
H-C-F#-C  H-C-F#-F
And again and again and again...... 
Аккорд DmАккорд AmАккорд CАккорд FАккорд F#-CАккорд F#-F