Портал для гитаристов
gtars.ru

Cure — Boys Dont Cry

 Song: Boys Dont Cry
Album: Boys Dont Cry
Tabbed: Say It Aint So
Part: Intro/Main Riff

E|------------------------------------------------|
B|-----------------------------7-9-10-9-7---------|
G|-6--6-6-7-9--6--6-6-7-9--9-9-------------9-7----|
D|------------------------------------------------|
A|------------------------------------------------|
E|------------------------------------------------| 

Cure — Boys Dont Cry

 Artist: the Cure
Title: Boys Don't Cry

--------------------------------------------------------------------------------
(Rythym A)

A Bm C#m D D C#m Bm

Repeat Ryth A, with, Riff A, twice.

e ----------------------------------------
b -----------------------7-9-10-7---------
g ---6-6-7-9-6-6-7-9-9-9----------9-8-(6)-
d ----------------------------------------
a ----------------------------------------
e ----------------------------------------

                                       ^--  only on second time. Repeat Ryth A.

Rythym B

A Bm C#m D

Repeat for the first part of the verse.

Rythym C

C#m Bm

Repeat for the second part of the verse.

Do Rythym A, and Riff A during the chorus.

repeat that for the second verse/chorus...

For the 'Mis-judged your limits..' bit, its ..

Rythym D

Em F#m F#m7 Em F#m F#m7 Em F#m F#m7 D E

back to the verse, with this ..

g ---6-  

on heavy over drive, ..  then to the end..  ==== 
Аккорд AАккорд BmАккорд C#mАккорд DАккорд BАккорд CАккорд EmАккорд F#mАккорд F#m7Аккорд E

Cure — Boys Dont Cry

 Song: Boys Don't Cry
Artist: The Cure
Album: 
Tuning: EADGBe (standard)

Gtr 1: acoustic (rythm)
Gtr 2: light distorsion (lead)

tabbed by BoF feel free to send me feedback 
and corrections at Bof_mu@caramail.com

Intro
Gtr 1
e------------------------------------------
B--4---5---7---9-------11-7-5--------------
G--6---7---9---11------11-9-7-------------- x1
D--6---7---9---11------11-9-7--------------
A--4---5---7---9-------9--7-5--------------
E------------------------------------------

Gtr 1
e------------------------------------------------
B-----------------9--7-5-------------------------
G-------------7---11-9-7------------------------- x3
D--7--9--11---7---11-9-7-------------------------
A--7--9--11---5---9--7-5-------------------------
E--5--7--9---------------------------------------
Gtr 2
e------------------------------5------------------
B---------------------5-5--7-9----7-5-------------
G-6-6--7-9--6-6--7-9------------------7---6hold--- x2
D-------------------------------------------------
A-------------------------------------------------
E-------------------------------------------------

Verse

Gtr 1, Gtr 2(clean)
e--------------------------------------------------------
B--------------------------------------------------------
G-------------------------------------------7-x-7--7-7---
D--7-x-7--7-7--9-x-9--9-9---11x-11-11-11----7-x-7--7-7---x2
A--7-x-7--7-7--9-x-9--9-9---11x-11-11-11----5-x-5--5-5---
E--5-x-5--5-5--7-x-7--7-7---9-x-9--9--9------------------

e--------------------------------------------------------
B--4-x-4--4-4---2-x-2--2-2-------------------------------
G--6-x-6--6-6---4-x-4--4-4-------------------------------x4
D--6-x-6--6-6---4-x-4--4-4-------------------------------
A--4-x-4--4-4---2-x-2--2-2-------------------------------
E--------------------------------------------------------


Chorus

Gtr 1
e---------------------------------------------------------------
B---------------------------------------------------------------
G-------------------------------------------7-x-7--7-7--11-9-7--
D--7-x-7--7-7--9-x-9--9-9---11x-11-11-11----7-x-7--7-7--11-9-7--x2
A--7-x-7--7-7--9-x-9--9-9---11x-11-11-11----5-x-5--5-5--9--7-5--
E--5-x-5--5-5--7-x-7--7-7---9-x-9--9--9-------------------------
Gtr 2
e-------------------------------5------------------------
B---------------------5-5--7-9------7-5------------------
G-6-6--7-9--6-6--7-9--------------------7----------------x2
D--------------------------------------------------------
A--------------------------------------------------------
E--------------------------------------------------------

Verse 2
same as verse 1

Chorus

Verse 3
same as verse 1

Bridge

Gtr 1, Gtr 2(clean)
e---------------------------------------------------12--12-9----
B--7-x-7--7-7--9---9--1111--7---9--7-7--9---11-1111-12--12-9----
G--9-x-9--9-9--11--11-1111--9---9--9-9--11--11-1111-------------
D--9-x-9--9-9--11--11-1111--9---7--9-9--11--11-1111-------------
A--7-x-7--7-7--9-x-9--9-9---7-x-7--7-7--9-x-9--9-9--------------
E---------------------------------------------------------------

e---------------------------------------------------------------
B--7-x-7--7-7--9---9--1111--7---9--7-7--9---11-1111-------------
G--9-x-9--9-9--11--11-1111--9---9--9-9--11--11-1111---7-7-7-7-7-
D--9-x-9--9-9--11--11-1111--9---7--9-9--11--11-1111---7-7-7-7-7-
A--7-x-7--7-7--9-x-9--9-9---7-x-7--7-7--9-x-9--9-9----5-5-5-5-5-
E---------------------------------------------------------------

Chorus

Ending
near same as intro, figure the variations yourself it's easy

tabbed by BoF feel free to send me feedback 
and corrections at Bof_mu@caramail.com
Enjoy 

Cure — Boys Dont Cry

 Song: Boys Donґt Cry
Band: The Cure
Tabber: Axel The Stroker
Tunning: 1 full step down

All the other tabs for this song are awfully wrong, this is 110% correct. So use this.
(If you like only tune down the A and D strings)

Intro                        Outro (the same)
F|-----------------------|  |-----------------------|-------------------------
C|-----------------------|  |-----------------------|-------------------------
G|2---4---6---7---7-6-4-2|  |2---4---6---7---7-6-4-2|-------------------------
D|-----------------------|  |-----------------------|-------------------------

Riff 1
F|--------------------------------------------------------------|----------------
C|--------------------------------------------------------------|----------------
G|/14-14-14-14-14/16-16-16-16-16/18-18-18-18-18-19---19-18-16-14|----------------
D|--------------------------------------------------------------|----------------

Riff 2
F|-------------------------------------------|-----------------------------------
C|-------------------------------------------|-----------------------------------
G|2-2-2-2-2/4-4-4-4-4/6-6-6-6-6-7---7-7-6-4-2|-----------------------------------
D|-------------------------------------------|-----------------------------------

Riff 3
F|-------------------------------------------------------------------------------
C|-------------------------------------------------------------------------------
G|6-6-6-6-6-4-4-4-4-4-6-6-6-6-6-4-4-4-4-4-6-6-6-6-6/7-6-2-0-2-6-6-6-6-6-4-4-4-4-4
D|-------------------------------------------------------------------------------

Riff 4
F|------------------------|2x   Then|--------------------------------------|--
C|------------------------|         |--------------------------------------|--
G|9-9-9-9-9-11-11-11-11-11|    	    |9-9-9-9-11-11-11-11-11-7-7-7-7-9-7-6-4|--
D|------------------------|	    |--------------------------------------|--

The song goes like this:

  Intro Riff 1 Riff 1 
F|-----|------|------|---------------------------------------------------------|
C|-----|------|------|----------------------------------------------------16-18|
G|-----|------|------|/14-14-14-14-14/16-16-16-16-16/18-18-18-18-18-19-19------|
D|-----|------|------|---------------------------------------------------------|

  Riff 2                                           Riff 3 Riff 1 Riff 1 Riff 2
F|------|-----------------------------------------|------|------|------|------|
C|------|-----------------------------------------|------|------|------|------|
G|------|2-2-2-2-2/4-4-4-4-4/6-6-6-6-6-7--7-7-9-11|------|------|------|------|
D|------|-----------------------------------------|------|------|------|------|

                                            Riff 3 Riff 1 Riff 1 Riff 2
F|-----------------------------------------|------|------|------|------|
C|-----------------------------------------|------|------|------|------|
G|2-2-2-2-2/4-4-4-4-4/6-6-6-6-6-7--7-7-9-11|------|------|------|------|
D|-----------------------------------------|------|------|------|------|





                                            Riff 4 Riff 2 Riff 2 Riff 1 Riff 1
F|-----------------------------------------|------|------|------|------|------|
C|-----------------------------------------|------|------|------|------|------|
G|2-2-2-2-2/4-4-4-4-4/6-6-6-6-6-7--7-7-9-11|------|------|------|------|------|
D|-----------------------------------------|------|------|------|------|------|

                                                            Outro
F|---------------------------------------------------------|------|
C|----------------------------------------------------16-18|------|
G|/14-14-14-14-14/16-16-16-16-16/18-18-18-18-18-19-19------|------|
D|---------------------------------------------------------|------|

Just learn the Riffs, play along with the song, follow this tab and you will play it right.
Have fun and rock!

Pablo Gаrсна M. 
Аккорд AАккорд D