Портал для гитаристов
gtars.ru

Cure — Closedown

 closedown

by the Cure
from the fabulous dark 89'album 'disintegration'

transcribed by Christian Reindel(creindel@gmx.de)
any questions or corrections- e-mail me


please let me know if everything wrong - I love that song so much !!!



Intro - bassfigure (play the whole song with little variations)

E--------------------------------------------------------------------
B--------------------------------------------------------------------
G--------------------------------------------------------------------
D------------------------------4-4-----------------------------------
A-0--0-0-0--0-4-4--2--2-2-2--2------0--0-0-0--0-4-4--2--2-2-2--2---2-
E----------------------------------------------------------------2---
   
   
Keyboards  - use a synthesyser effect for your guitar (play twice)

E---------------------------------------------------------------
B---------------------------------------------------------------
G---------------------------------------------------------------
D--7------9-------11------12------11------12------11------9-----
A---------------------------------------------------------------
E---------------------------------------------------------------
      

keyboard solo

                   3x 
E-------------------------------------|--------------------------------------
B-------------------------------------|--------------------------------------
G---------------------------------9---|-----------------9-9-9----------------
D-7--9--11---7--9--11---7--9--11------|--12--11----------------12-12--11-11--
A-------------------------------------|--------------------------------------
E-------------------------------------|--------------------------------------
      

guitarsolo 1

E---------------------------------------------------------------
B---------------------------------------------------------------
G-------------------11------------------------------------------
D--7-7-7--9-9-12--------12-11-12-11--7--9-9--------------------
A---------------------------------------------9--7-7------------
E---------------------------------------------------------------
     
E---------------------------------------------------------------
B---------------------------------------------------------------
G-------------------11------------------------------------------
D--7-7-7--9-9-12--------12-11-12-11--7--9-9--------------------
A---------------------------------------------------------------
E---------------------------------------------------------------


E---------------------------------------------------------------
B---------------------------------------------------------------
G--9-9-9------------------------9-9-9---------------------------
D--------12-12--11-11------------------12-12---11-12-11--7--9-9-
A---------------------------------------------------------------
E---------------------------------------------------------------
 

E---------------------------------------------------------------
B---------------------------------------------------------------
G--9-9-9------------------------9-9-9---------------------------
D--------12-12--11-11------------------12-12---11-12-11--7--9-9-
A---------------------------------------------------------------
E---------------------------------------------------------------


E---------------------------------------------------------------
B---------------------------------------------------------------
G--9-9-9--------------------------------------------------------
D--------12-12--11-11-------------------------------------------
A---------------------------------------------------------------
E---------------------------------------------------------------

back to keyboardsolo


robert sings -  use a synthesyser effect for your guitar (play twice)

E---------------------------------------------------------------
B---------------------------------------------------------------
G---------------------------------------------------------------
D--7------9-------11------12------11------12------11------9-----
A---------------------------------------------------------------
E---------------------------------------------------------------


back to keyboardsolo


guitarsolo 2

E------------------------------------------------------------------
B---------------------10-9-----------------------------------------
G----------------9---------9---------------------------------------
D--11-11-11--12----------------11-11-11--12-11----11-11-11--12-11--
A------------------------------------------------------------------
E------------------------------------------------------------------
 
E------------------------------------------------------------------
B--------------------10-9-----10-9----10-9----10--12--12-12--------
G----------------9--------9--------9-------9-----------------9-9---
D--11-11-11--12----------------------------------------------------
A------------------------------------------------------------------
E------------------------------------------------------------------

           
E-----------------------------------------------
B-----------------------------------------------
G--9-9-------9-9-------9-9-------9-9--11-11-----
D------11-11-----11-11-----11-11----------------
A-----------------------------------------------
E-----------------------------------------------


E-----------------------------------------------
B-----------------------------------------------
G--9-9-------9-9-------9-9-------9-9--11-11-----
D------11-11-----11-11-----11-11----------------
A-----------------------------------------------
E-----------------------------------------------
 
I'm not so sure about this part
E---------------------------------------------------------------
B----------------------------10-12-12---10-12------12-14--------
G--9-9--------9-9--11-11---9------------------9-9---------9-9---
D------11-11----------------------------------------------------
A---------------------------------------------------------------
E---------------------------------------------------------------   

E------------------------------------
B------------------------------------
G--9-9-------9-9-------9-9--11-11----
D------11-11-----11-11---------------
A------------------------------------
E------------------------------------

back to keyboardsolo

                   3x 
E-------------------------------------|--------------------------------------
B-------------------------------------|--------------------------------------
G---------------------------------9---|--------------------------------------
D-7--9--11---7--9--11---7--9--11------|--12--11--------11---9--(9)-----------
A-------------------------------------|--------------------------------------
E-------------------------------------|--------------------------------------

end. 

Cure — Closedown

 The cure
Closedown
Standard tuning
This is played at the beginning, in the background 
when the 2nd solo is being played and on the outro
|-----------------------------------------------|
|-----------------------------------------------|
|-----------------11----------------------------|
|--7-7-7-9-9/11-9----12-11-12-11-7-9-9----------|
|--------------------------------------9-9-7-9--|
|-----------------------------------------------|

|-----------------------------------------------------|
|-----------------------------------------------------|
|-----------------11-------------------9-9-9-7-7-6-6--|
|--7-7-7-9-9/11-9----12-11-12-11-7-9-9----------------|
|-----------------------------------------------------|
|-----------------------------------------------------|

|---------------------------------------|
|---------------------------------------|
|--9-9-9-7-7-6-7-6-------9-9-9-7-7-6-6--|
|------------------7/9-9----------------|
|---------------------------------------|
|---------------------------------------|

|---------------------------------------|
|---------------------------------------|
|--9-9-9-7-7-6-7-6-------9-9-9-7-7-6-6--|
|------------------7/9-9----------------|
|---------------------------------------|
|---------------------------------------|
 Then Robert Smith sings...
 
The 2nd solo is
|----------------------------------------------------------|
|----------------------------------------------------------|
|----------------------------------------------------------|
|--------------19-18---------------------------------------|
|--16-16-17/19-------19---16-16-16-17-16---16-16-16-17-16--|
|----------------------------------------------------------|

|------------------------------------------------------------------|
|------------------------------------------------------------------|
|------------------------------------------------------------------|
|--------------19-18----19-18----19-18----19/21-21-21-21-14-14-14--|
|--16-16-17/19-------19-------19-------19--------------------------|
|------------------------------------------------------------------|

|-----------------------------------------------------|
|-----------------------------------------------------|
|-----------------------------------------------------|
|--14-12-11-11--14-12-11-11--14-12-11-12-11-----------|
|-------------------------------------------12-12-12--|
|-----------------------------------------------------|

|-----------------------------------------------------|
|-----------------------------------------------------|
|-----------------------------------------------------|
|--14-12-11-11--14-12-11-11--14-12-11-12-11-----------|
|-------------------------------------------12-12-12--|
|-----------------------------------------------------|
not 100% sure bout this, but just adapt around it and work it out
|------------------------------------------------------------------------------------|
|------------------------------------------------------------------------------------|
|-----------------------------------------18-18--------------------------------------|
|--------------------16/18-18-19-19/21-21-------14-14-14-14-14-12-11-12-11-----------|
|--14/16-16-17-17/19-------------------------------------------------------12-12-----|
|------------------------------------------------------------------------------------|
then play the intro riff again until the end
take care ppl...email me for corrections or if u want any other cure tabs...hardpunx@msn.com