Портал для гитаристов
gtars.ru

Cure — Fascination Street

 #----------------------------------PLEASE NОТЕ---------------------------------#
#This file is the author's own work and represents their interpretation of the #
#song. You may only use this file for private study, scholarship, or research. #
#------------------------------------------------------------------------------##
From: Winston Campbell 
Subject: Fascination Street by The Cure


FАSСINАТIОN STREET
	(words by Robert Smith, music by Porl Thompson, Simon Gallup, Boris
Williams, Laurence Tolhurst, Roger О-Donnel, and Robert Smith)


I am actually transcribing the extended version of Fascination Street that
appears on -Mixed Up-.  Although I like the original version, I find this
version more fun to play around with.  I have not put anything in order,
all I did was to transcribe the millions of riffs there are to this song.
I have not transcribed the solo, though.  The chords are mainly Cm, Ab, Gm,
which is played during the verses by that clean guitar.  Here are the riffs
though:

This is the riff that opens up the song and appears near the end of the
song:

E ------------------------------------|
B -----4-------4------4------1---3----|
G -2-3-----2-3----2-3----2-3--------3-|
D ------------------------------------|
A ------------------------------------|
E ------------------------------------|


After this riff is played three times, the keyboard riff that appears is:

E -------3--------3----------------------3--------3--6--6-6-6--4--3--|
B -4--6-----4--6-----4--1--1--1--4-4--6-----4--6---------------------|
G -------------------------------------------------------------------|
D -------------------------------------------------------------------|
A -------------------------------------------------------------------|
E -------------------------------------------------------------------|


This is played two times, then the drums come in and then a weird effect
appears, I think it is harmonics played like:

E ----------------------------------------------|
B --7-7--7--7-7--7-7---5--5-5--5--5--5-5-5-  
Аккорд EАккорд BАккорд GАккорд DАккорд A

Cure — Fascination Street

 Artist: The Cure
Song: Fascination Street
Album: Dissentigration

tabbed by: Stellar Legs
e-mail: uncle_stellar@hotmail.com

This has to be one of the greatest songs ever written. Anyway, you don't wanna
hear me go on about The Cure (because I can), so here's the tab:

Guitar 1
e----------19-----------19------------------19--------19--------------19--|
B----20-----------------20------------------20------------20--------------|
G-------------------------------------------------------------------------|
D-------------------------------------------------------------------------|
A-------------------------------------------------------------------------|
e-------------------------------------------------------------------------|
  Let notes ring. A lot of volume swells......

e---------------20----------------------------------------------12-------|
B---20-------------------20----------20-------------20--------------20---|
G------------------------------------------------------------------------|
D------------------------------------------------------------------------|
A------------------------------------------------------------------------|
e------------------------------------------------------------------------|

e--------12--------|
B------------20----|
G------------------|
D------------------|
A------------------|
e------------------|

Guitar 2 (comes in after all of the above)
e----8------------------------8--------------------------------------|
B--------10----------------------10----------------------------------|
G-------------8----------------------8-------------------------------|
D-----------------10--(10)--------------10--(10)-------10-----(10)---|
A--------------------------------------------------------------------|
e--------------------------------------------------------------------|

Both guitar parts are over dubbed by 2 more guitars, so that they can play these
parts. So now there's 4 guitars going on, but you can do it with 2....

Guitar 1
e---------------------------------------------------------------------------|
B---11--11-11-11--11-11-11--11-11-11--11-11-----11--11-11-11--11-13-13-13-11|
G---------------------------------------------------------------------------|
D---------------------------------------------------------------------------|
A---------------------------------------------------------------------------|
e---------------------------------------------------------------------------|

Guitar 2
e---------------------------------------------------------------------------|
B---------------------------------------------------------------------------|
G------------------8-----7---------------------------5--(5)-------------10--|
D-------------10------------8--------------------6------------------8-------|
A--------10--------------------8--(8)--(8)/6--6------------------8----------|
e---8-----------------------------------------------------------------------|

Guitar 1
e---11-13-11--15-13-11----13-11-15-13---11*-----------------11*-11*--11*--|
B----------------------15-------------------13--13-13-13-15---------------|
G-------------------------------------------------------------------------|
D-------------------------------------------------------------------------|
A-------------------------------------------------------------------------|
e-------------------------------------------------------------------------|

e--13-11--15-13-11-15--13-11*-15*---18--15-18-18--18-18-18-18--16-18-16-15--|
B---------------------------------------------------------------------------|
G---------------------------------------------------------------------------|
D---------------------------------------------------------------------------|
A---------------------------------------------------------------------------|
e---------------------------------------------------------------------------|

1st Verse

Guitars 1 and 2 repeat all of the above, while an over dubbed guitar does this.

e------------------------------------------------|
B---13---13---16---13---15*------13--(13)---13---|
G------------------------------------------------|  X 2
D------------------------------------------------|
A------------------------------------------------|
e------------------------------------------------|

e-------------16--------15-------13--(13)---------------15----16---|
B---13---13--------13--------13------------13/15---15------15------|
G------------------------------------------------------------------|
D------------------------------------------------------------------|
A------------------------------------------------------------------|
e------------------------------------------------------------------|

Guitars 1 and 2 come back in

Guitar 1
e-------------------------------------------------------------------|
b-------------------------------------------------------------------|
G----------------------5----7----8--------(8)---------5----7----8---|
D-------------------------------------------------------------------|
A-------------------------------------------------------------------|
e-------------------------------------------------------------------|

Guitar 2
e--8----------8------8---x--8--8--8--x--10--10--10-10-10----10-10---10-10--|
B--8----------8------8---x--8--8--8--x---8---8---8--8--8-----8--8----8--8--|
G--8----------8------8---x--8--8--8--x---8---8---8--8--8-----8--8----8--8--|
D--------------------------------------------------------------------------|
A--------------------------------------------------------------------------|
e--------------------------------------------------------------------------|

Guitar 1
e------------------------------------------------------|
B------------------------------------------------------|
G--8--------5----7-----8------------(8)----------------|
D------------------------------------------------------|
A------------------------------------------------------|
e------------------------------------------------------|

Guitar 2
e---8-------8------8---x--8--8--8--8--8--8/10-10--10--10-10---11--11--11--|
B---9-------9------9---x--9--9--9--9--9--9/11-11--11--11-11---11--11--11--|
G---8-------8------8---x--8--8--8--8--8--8/10-10--10--10-10---10--10--10--|
D-------------------------------------------------------------------------|
A-------------------------------------------------------------------------|
e-------------------------------------------------------------------------|

Everything pretty much repeats itself.

Outro

Guitar 1
e----------------------------------------|
B--11---11-11-11--11-11-11---11-9-9-9-8--|
G----------------------------------------|  X 4
D----------------------------------------|
A----------------------------------------|
e----------------------------------------|

Guitar 2
e---8-------8----8---x--10-10--10--10--|
B---8-------8----8---x---8--8---8---8--|
G---8-------8----8---x---8--8---8---8--| X 4
D--------------------------------------|
A--------------------------------------|
e--------------------------------------|

Guitar 1 ends on:
e--------|
B---11~--|
G--------|
D--------|
A--------|
e--------|

Guitar 2 ends on:
e---11~--|
B---11~--|
G----9~--|
D--------|
A--------|
e--------|

Fin.

Vote Stellar........ 
Аккорд A

Cure — Fascination Street

                     

                          Вступление для длинной версии(mixed up)
 E  -----------5-----------5--------5-------------------
 B  ----------5---------5--------5--------5---7-----9--5
 G  -------8---------8--------8--------8----------------
 D  ----------------------------------------------------
 A  ----------------------------------------------------
 E  ----------------------------------------------------



 E  ----------------------------------------------------------------------------------
 B  ----------------------------------------------------------------------------------
 G  ----------------------------------------------------------------------------------
 D  ----------------------------------------------------------------------------------
 A  ----------------------------------------------------------------------------------       
 E  5-5--5-5--5-5--5-5--8-8-8--5-5--5-5--5-5--5-5--7-7-7--1-1--1-1--1-1--1-1-10-10-10-
    ----0-0--0-0--0-0--0-0--7-7-7-----
                                               
                                                

      oh it´s opening time down on fascination street
      so let´s cut the conversation and get out for a
      bit because i feel it all fading and paling and i´m
      begging to drag you down with me to kick the
      last nail in yeah i like you in that like i like you
      to scream but if you open your mouth then i
      can´t be responsible for quite what goes in or
      to care what comes out so just pull on your hair
      just pull on your pout and let´s move to the beat
      like we know that it´s over if you slip going
      under slip over my shoulder so just pull on your
      face just pull on your feet and let´s hit opening
      time down on fascination street


      so pull on your hair pull on your pouth cut the
      conversation just open your mouth pull on your
      face pull on your feet and let´s hit opening time
      down on fascination street 
Аккорд EАккорд BАккорд GАккорд DАккорд A