Портал для гитаристов
gtars.ru

Cure — Just Like Heaven

 The Cure - Just like Heaven
Please contact me for any comment: grilliestelle@hotmail.com


    A                 E                 Bm                D 

e --------------------------------------2-2-2-2--2-2-2----2--2-2-2-2-2-2------
B --------------------------------------3-3-3-3--3-3-3----3--3-3-3-3-3-3------
G --2-2-2-2--2-2-2----1--1-1-1-1-1-1----4-4-4-4--4-4-4----2--2-2-2-2-2-2------
D --2-2-2-2--2-2-2----2--2-2-2-2-2-2----4-4-4-4--4-4-4------------------------
A --4-4-4-4--4-4-4----2--2-2-2-2-2-2----2-2-2-2--2-2-2------------------------
E ----------------------------------------------------------------------------

SOLO

e ----------------------------------------------------------------------------
B ----------------------------------------------------------------------------
G --18-18-18-16-16-14---------------------------------------------------------
D ---------------------18-18-18-16-16-14--12-12-11-12-------------------------
A ----------------------------------------------------14--14-14-12-12-14------
E ----------------------------------------------------------------------------

e ----------------------------------------------------------------------------
B ----------------------------------------------------------------------------
G --18-18-18-16-16-14---------------------------------------------------------
D ---------------------18-18-18-16-16-14--12-12-11-12-------------------------
A ----------------------------------------------------14--14-14-12-12-14------
E ----------------------------------------------------------------------------

e ----------------------------------------------------------------------------
B ----------------------------------------------------------------------------
G ----------------------------------------16-16-16-18-18-19--21-21-21-19-19-18
D ---------------------16-16-16-18-18-19--------------------------------------
A --16-16-16-17-17-19---------------------------------------------------------
E ----------------------------------------------------------------------------

e ----------------------------------------------------------------------------
B ----------------------------------------------------------------------------
G --18-18-18-16-16-14---------------------------------------------------------
D ---------------------18-18-18-16-16-14--12-12-11-12-------------------------
A ----------------------------------------------------14--14-14-12-12-14------
E ---------------------------------------------------------------------------- 
Аккорд AАккорд EАккорд BmАккорд DАккорд BАккорд G

Cure — Just Like Heaven

 Almost Perfect Tab


G----------------------------------- Main Verse
D-----------------------------------
A----------------22222555555--------
E--55555550000000-------------------

G------------------------------------- Play This Every Third Verse
D-----------------------5-5-----------
A---------------2222255--5-5----------
E--5555555000000----------------------

G-----------------------------------
D-----------------------------------
A-2222222233333333------------------ Chorus Play this 3 times then go into...
E-----------------------------------

G-----------------------------------
D-----------------------------------
A-555555555555---------------------- From here go Right onto into Main Verse
E----------------------------------- 

Cure — Just Like Heaven

 BTAB FОR:          JUST LIKE HEAVEN====KISS ME, KISS ME, KISS ME
РЕRFОRМЕD BY: The CURE
PUT INТО TEXT BY: ERIC 121

INТRО: ( 8X )

I-------------------------I-------------------------I------------------------I--------------------------I
I-------------------------I-------------------------I------------------------I--------------------------I
I-------------------------I-------------------------I-2--2---222-------------I5-5-5-5-5-5-5-5-----------I
I--5---5---5-5---5--------I--О--О-О--ОО--О-О--------I------------------------I--------------------------I


VERSE 1: ( 4X )
    4
II '  I// II
II //I '  II

GUITAR SОLО: ( 4X )
    4
II '  I// II
II //I '  II

VERSE 2 ( 4X )
    4
II '  I// II
II //I '  II

I-------------------------I---------------------------I------------------------I-----------------------I
I---4---4---4---4---4-----I---5--5--5---5---5---5---5-I------------------------I-----------------------I
I-------------------------I---------------------------I------------------------I-----------------------I
I-------------------------I---------------------------I---2---2---2---2---2----I-3---3---3---3---3---3-I

                                                                ( D )
I-------------------------I---------------------------I---------------------------I--------------------I
I---4---4---4---4---4-----I---5--5--5---5---5---5---5-I---------------------------I--------------------I
I-------------------------I---------------------------I---5--5--5---5---5---5---5-I-5-5-5-5-5-5-5-5----I
I-------------------------I---------------------------I---------------------------I--------------------I

    2
II '  I// II
II //I '  II 
Аккорд D

Cure — Just Like Heaven

 C                G 
"Show me how you do that trick
Dm                    F
The one that makes me scream" she said
C                       G
"The one that makes me laugh" she said
Dm                  F
And threw her arms around my neck
C                G           Dm
"Show me how you do it and i promise you
  F            C                    G 
I promise that I´ll run away with you
Dm                    F
I´ll run away with you"


Spining at that dizzy edge
I kissed her face and hissed her head
And dreamed of all the different ways i had
To make her glow
"Why are you so far away?" she said
"Why won´t you ever know that i´m in love with you?
That I´m in love with you?"


Am  G
You soft and only
C   Dm
You lost and lonely
Am   G
You strange as angeles
Dm             G
Dancing in the deepest oceans
Dm              G
Twisting in the water
G
You´re just like a dream


Daylight licked me into shape
I must have been asleep for days
And mooving lips for breathe her name
I opened my eyes
And found myself alone alone 
Alone above a raging sea
That stole the only girl I loved
And drowned her deep inside of me

Am  G 
You soft and only
C   Dm
You lost and lonely
Am   G        Am
You just like heaven 
Аккорд CАккорд GАккорд DmАккорд FАккорд Am

Cure — Just Like Heaven

 hey its punkdude969 and umm this is an 
easier way to play the intro...

bass goes...
G]-----------------------------]
D]-----------------00000-------]
A]-00000------22222------------]
E]-------00000-----------------]

guitar goes like
e]-9-9-9----------------------------------------------------]
B]------12-12-12-10-10-9-9-9--------------------------------]
G]--------------------------11-11-11-9-9-7-7-6/76-4-4-2-4--]
D]----------------------------------------------------------]
A]----------------------------------------------------------]
E]----------------------------------------------------------]
after that two times then do this...

e]-----------------------------------------------9-9-9-10-10-12-12-12-10-10-]
B]--------------------------9-9-9-10-10-12-12-12----------------------------]
G]-6-6-6-7-7-7-9-9-11-11-11-------------------------------------------------]
D]--------------------------------------------------------------------------]
A]--------------------------------------------------------------------------]
E]--------------------------------------------------------------------------]
and then do once more the first part..

here is the piano solo

e]-12-12-12-12-9----------------12------
B]---------------10--12-12-10-12--------
G]---------------------------------11---

e]-12-12-12-12-9----------------9-10-9-10-12------
B]---------------10--12-12-10-12------------10----
G]------------------------------------------------

e]-17-17-17-17-19 21-17-19-17-19-17-19-------10-9-10-9-----------10-9-10-9---
B]-----------------------------------------------------10-10---------------10
G]---------------------------------------------------------------------------

there you gO