Портал для гитаристов
gtars.ru

Cure — Lost

 ---------------------------------------------------
                   Lost-The Cure
---------------------------------------------------

Album: The Cure
tabbed by: Edward White

I can't work out the intro it sounds like tuning up
but this i think is the only riff in the song;

E|----------------|----------------|
B|----------------|----------------|
G|----------------|----------------|
D|----------------|----------------|
A|-3-3-3-3-3-3-3-3|-2-2-2-2-3-3-3-3|
E|-3-3-3-3-3-3-3-3|-0-0-0-0-1-1-1-1|

Or it might be this;

E|----------------|----------------|
B|----------------|----------------|
G|----------------|----------------|
D|----------------|----------------|
A|-5-5-5-5-5-5-5-5|-2-2-2-2-3-3-3-3|
E|-3-3-3-3-3-3-3-3|-0-0-0-0-1-1-1-1|

if you have a better version please e-mail it to me

sacrificialrequiem@hotmail.com 

Cure — Lost

 Band:cure
song:Lost
Album:The cure(self titled


All the other tabs are not correct the catual song is played in drop D.

E-----------------------------------------------------------------------|
B-----------------------------------------------------------------------|
G-----------------------------------------------------------------------|
D--55555555--0000--2222-------------------------------------------------|
A--55555555--0000--2222-------------------------------------------------|
D--55555555--0000--2222-------------------------------------------------|


Thats it enjoy!if you have any comments or suggestions e-mail me at Littleteapot317@aol.com 
Аккорд D