Портал для гитаристов
gtars.ru

Cure — Love Song

 This is a kick ass song by The Cure, and it makes me think a lot about some girl that's 
why I like it cause the solo sort of sucks and I'm not even sure the solo is right but 
your own corrections, so fuck it here it is:

E --9----------|------------------------------------------------------------|
B --7----------|------3s5--3---5---3--1-------------------------------------|
G --7----------|---2-----------------------2--------repeat-4-times----------|
D --9----------|------------------------------------------------------------|
A -------------|------------------------------------------------------------|
E -------------|------------------------------------------------------------|

Whenever I'm alone with you
You make me feel like I am home again
Whenever I'm alone with you
You make me feel like I am whole agai

Whenever I'm alone with you
You make me feel like I am young again
Whenever I'm alone with you
You make me feel like I am fun again

(chorus)

F       G
However far away

Am         C
I will always love you
F        G
However long I stay
Am          C
I will always love you
F        G
Whatever words I say
Am         C
I will always love you

I will always love you

E --------------------------------------------------------------------------|
B -------3s5--3--5--3--1----------------------------------------------------|
G ----2-------------------2------Repeat-four-times--------------------------|
D --------------------------------------------------------------------------|
A --------------------------------------------------------------------------|
E --------------------------------------------------------------------------|

E ---7-7-7-7-------7-7---------7-7-7-7--------7---8s10----------------------|
B -----------8----------8--------------8-------------------8-8-8-8-8-8s10---|
G --------------5---------5-------------5-----------------------------------|
D --------------------------------------------------------------------------|
A --------------------------------------------------------------------------|
E --------------------------------------------------------------------------|

E --------------------------------------------------------------------------|
B ---------5s4-2--1-1-1-1-1-1-0---------------------------------------------|
G -------------------------------0-2----------------------------------------|
D --------------------------------------------------------------------------|
A --------------------------------------------------------------------------|
E --------------------------------------------------------------------------|

Whenever I'm alone with you
You make me feel like I am free again
Whenever I'm alone with you
You make me feel like I am clean again

  (chorus)


And that's it, hope it's not THAT bad this was the first song I tabbed and I hope to 
a lot more.. 
Аккорд EАккорд BАккорд GАккорд DАккорд AАккорд FАккорд AmАккорд C

Cure — Love Song

 #----------------------------------PLEASE NOTE---------------------------------#
#This file is the author's own work and represents their interpretation of the #
#song. You may only use this file for private study, scholarship, or research. #
#------------------------------------------------------------------------------##
Date: Fri, 1 Mar 91 10:50:08 EST
>From: Mario Dorion - Sun Montreal 


Lovesong
========

Am       G              F    Em
Whenever I'm alone with you
Am          G              F           Em
You make me feel like I am home again
Am       G              F    Em
Whenever I'm alone with you
Am          G              F            Em
You make me feel like I am whole again

F       G        Am     C
However far away I will always love you
F       G           Am     C
However long I stay I will always love you
F        G           Am     C
Whatever words I say I will always love you
F      G
I will always love you 
Аккорд AmАккорд GАккорд FАккорд EmАккорд C

Cure — Love Song

 Intro: 
  E-----------------------------------------|
  B-----------------------------------------|
  G-----------------------------------------|
  D-----------------------------------------|
  A-------23-------223------320--------2-3--|
  E--5-5-5----3-333-----1-1-----0-000---0-0-|

  E---------------------------------------|   
  B---------------------------------------|
  G---------------------------------------|
  D---------------------------------------|
  A----------------223----------------666-|
  E--1-111111-3-333----5-55555--7-777-----|
              
                       
  Am       G              F  Em  E7 Em
  Whenever I'm alone with you
  Am          G              F      Em  E7  Em
  You make me feel like I am home again
  Am       G              F   Em  E7  Em
  Whenever I'm alone with you
  Am          G              F         Em  E7  Em
  You make me feel like I am whole again

  Whenever I'm alone with you 
  You make me feel like I am young again 
  Whenever I'm alone with you 
  You make me feel like I am fun again 

  F       G        Am     C
  However far away I will always love you
  F       G           Am     C
  However long I stay I will always love you
  F        G           Am     C
  Whatever words I say I will always love you
  F      G       
  I will always love you 

  Whenever I'm alone with you 
  You make me feel like I am free again 
  Whenever I'm alone with you 
  You make me feel like I am clean again 

  However far away I will always love you
  However long I stay I will always love you
  Whatever words I say I will always love you
  I will always love you  
Аккорд AmАккорд GАккорд FАккорд EmАккорд E7Аккорд C