Портал для гитаристов
gtars.ru

Cure — Lovesong

 ----------------------------------------------------------------------------
			     Love Song - The Cure
----------------------------------------------------------------------------

Tabbed By : Memo lala
e-mail: deride_korn_mudvayne666@hotmail.com

Tuning:Eb Ab Db Gb but normal is fine
   this is played throughout the song:(the verse)
G|----------------------------------------------|
D|------7-9-10-555-77-9----10-9-7-----99-10-----|
A|-0-0------------------88--------777-----------|
E|----------------------------------------------|
   the chorus:
G|---------------------------------------------------------|
D|----5-----------77-8--------8----------------------------|
A|-66---6--8-8-88-------10-10----10--14-14-14-14-15-15-15--|
E|---------------------------------------------------------|


hope its right 
Аккорд EbАккорд AbАккорд DbАккорд Gb

Cure — Lovesong

 Author/Artist: The Cure
Title: Love Song
Album: Galore
Transcribed by: Chief Ungamunga
Email: twinfactor@mail.com


Guitar:

Chord Played on first beat of every fourth measure...(1, 5, 9 ...ect)
|---7---|---0-----0-0-0-----|----------------------------|
|---8---|---1/3h5-3-5-31---|----------------------------|
|---9---|-2---------------2-|--2-4h5-5-4-2-4-4-2---------|
|---7---|-------------------|--------------------5-3-3-3-|
|-------|-------------------|----------------------------|
|-------|-------------------|----------------------------|


Starts on 5th measure, and then again throughout the song...
|---0-----0-0-0-----|
|---1/3h5-3-5-31---|
|-2---------------2-|
|-------------------|
|-------------------|
|-------------------|

Guitar Solo
|-7-7-7-7-----7-7----|7-7-7-7-----7-8/10|--------------------------|
|---------8-------8--|--------8---------|8-8-8-8h10-10-------------|
|--------------------|------------------|--------------9p7----7-9-7|
|-----------7-------7|----------7-------|------------------10------|
|--------------------|------------------|--------------------------|
|--------------------|------------------|--------------------------|
                                                                              
|-----------------|
|-----------------|
|-----------------|
|10-10-10-10-9-5-7|
|-----------------|
|-----------------|


Synth tabbed for Guitar
|----------------------------|
|----------------------------|
|--2-4h5-5-4-2-4-4-2---------|
|--------------------5-3-3-3-|
|----------------------------|
|----------------------------|                                               


Verse
Bass Line w/ chords...
  Am            G              F             E
|-------------|---------------|-------------|---------------|
|-------------|---------------|-------------|---------------|
|-------------|---------------|-------------|---------------|
|-------------|---------------|-------------|---------------|
|-------3-2-0-|---------2---3-|-------3-2-0-|---------2---3-|
|-5-5-5-------|-3-3-3-3---3---|-1-1-1-------|-0-0-0-0---0---|

Chorus
Bass Line w/ chords...
  F         G        Am         C
|---------|---------|---------|---------|
|---------|---------|---------|---------|
|---------|---------|---------|---------|
|---------|---------|---------|---------|
|---------|---------|---------|-3-3-3-3-|
|-1-1-1-1-|-3-3-3-3-|-5-5-5-5-|---------| 
Аккорд AmАккорд GАккорд FАккорд EАккорд C

Cure — Lovesong

 Guitar Chords for LoveSong 
By: The Cure
Album: --- 

Transcribed by
Ricardo Alvarez (RICK THE HERETIC) 

For any comments or changes e-mail me 
(freakardo@hotmail.com or hereticband@hotmail.com)

--------------------------------------------------------------------------------
This is a great song Hope you enjoy it

Tune Guitar (E,A,D,G,B,E)

Well Basicly the whole song its like this

 Am, G, F, E


and the Chorus is like this

 F, G, Am, C



CHORDS:

Am		G		F		E		C
|----5----|	|----3----|	|----1----|	|----0----|	|----0----|
|----5----|	|----3----|	|----1----|	|----0----|	|----1----|
|----5----|	|----4----|	|----2----|	|----1----|	|----0----|
|----7----|	|----5----|	|----3----|	|----2----|	|----2----|
|----7----|	|----5----|	|----3----|	|----2----|	|----3----|
|----5----|	|----3----|	|----1----|	|----0----|	|----3----|


Lovesong

Am         	  G	    F	      E
 Whenever I'm alone with you  
Am         	 G	    F	      E             
 You make me feel like I am home again
Am         	 G	    F	      E    
 Whenever I'm alone with you  
Am         	 G	    F	      E             
You make me feel like I am whole again

Am, G, F, E

Am         	 G	    F	      E
 Whenever I'm alone with you
Am         	 G	    F	      E
 You make me feel like I am young again
Am         	 G	    F	      E
 Whenever I'm alone with you
Am         	 G	    F	      E
 You make me feel like I am fun again


F 	  G
 How ever far away                         
Am	  C
 I will always love you                    
F 	  G 
 How ever long I stay                     
Am	  C
 I will always love you                    
F 	  G 
 What ever words I say                     
Am	  C
 I will always love you                    
F 	  G             Am
 I will always love you


Am, G, F, E

Am         	 G	    F	      E
 Whenever I'm alone with you
Am         	 G	    F	      E 
 You make me feel like I am free again
Am         	 G	    F	      E
 Whenever I'm alone with you
Am         	 G	    F	      E
 You make me feel like I am clean again

F 	  G
 How ever far away
Am	  C
 I will always love you
F 	  G
 How ever long I stay
Am	  C
 I will always love you
F 	  G
 What ever words I say
Am	  C
 I will always love you
F 	  G		Am
 I will always love you


HAVE FUN!

For any comments or changes e-mail me 
(freakardo@hotmail.com or hereticband@hotmail.com) 
Аккорд EАккорд CАккорд AmАккорд GАккорд FАккорд HAVE

Cure — Lovesong

 I listened to the song closer and discovered that I made a small mistake.
The first three 7's on the verse should be open notes on the A string,
sorry about that! It sounds good either way, but much better when played right.

This is the first part to the verse
|--------------------------------------------------------|Verse Part 1
|-7-7-7-9-10-9-------------7-9-----10-9-7---------9---10-|
|--------------10-10-10-10-----8-8--------7-7-7-7---7----|
|--------------------------------------------------------|

Play this before the song goes into the chorus
|--------------------------------------------------------|Verse Part 2
|-7-7-7-9-10-9-------------7-9-----10-9-7---------10---9-|
|--------------10-10-10-10-----8-8--------7-7-7-7----7---|
|--------------------------------------------------------|

This is the chorus...
|--------------------------------------------------|
|---------------------7---9-7-7-7-7-10-10-10-10-10-|
|-8-8-8-8-10-10-10-10---7--------------------------|
|--------------------------------------------------|

Use this to jump back into the verse
|---------------------------|
|---------------------7---9-|
|-8-8-8-8-10-10-10-10---7---|
|---------------------------|

Here's a fun extra part that I learned from the Extended Mix
|---------------------------------------------------|
|-----------------------------10-9-7---------9---10-|
|-0-0-0-0-0-0-0-0-0-0-0-0-8-8--------7-7-7-7---7----|
|---------------------------------------------------|

Lovesong
--------

Whenever I'm alone with you               Verse Part 1
You make me feel like I am home again     Verse Part 1
Whenever I'm alone with you               Verse Part 1
You make me feel like I am whole again... Verse Part 2

Whenever I'm alone with you
You make me feel like I am young again
Whenever I'm alone with you
You make me feel like I am fun again...

How ever far away                         Chorus Part 1
I will always love you                    
How ever long I stay                      Chorus Part 1
I will always love you                    
What ever words I say                     Chorus Part 2
I will always love you                    
I will always love you...

Fly me to the moon...

Whenever I'm alone with you
You make me feel like I am free again
Whenever I'm alone with you
You make me feel like I am clean again...

How ever far away
I will always love you
How ever long I stay
I will always love you
What ever words I say
I will always love you
I will always love you... 
Аккорд A

Cure — Lovesong

 Hello

Here's the bass tab for lovesong by the cure 

Shaun Wilkinson

Here's Lovesong by The Cure, 


Verse:  

|  e  e  e  e  e  e  e  e  e  e  e  e  e  e  e  e  e  e  e  e                    
G--------------------------------------------------------------------------------
D--7--7--7--9-10-----------7--7--9-------10--9--7-----9--9-10--------------------
A----------------10-10-10-----------8--8-----------7-----------------------------
E--------------------------------------------------------------------------------
>                                                                                

Chorus:  I couldn't be bothered to put this down properly, basically these are the notes
if you've got the record it's easy to work out the rythem

|  e  e  e  e  e  e  e  e  e  e  e  e  e  e  e  e  e  e  e  e  e   e  e  e       
G--------------------------------------------------------------------------------
D--------------------------------------7--7--7--7--7--7-10-10-10--10-10-10-------
A--8--8--8--8--8--8-10-10-10-10-10-10--------------------------------------------
E--------------------------------------------------------------------------------
>                                                                                  

This is how you come out of the chorus and back into the verse.  Play the first half of the
chorus and then jump back in to the verse without a pause.

|  e  e  e  e  e  e  e  e  e  e  e  e  e  e  e  e
G------------------------------------------------
D-----------------------------------7--7--7--9-10
A--8--8--8--8--8--8-10-10-10-10-10---------------
E------------------------------------------------
>                                                

Submited by Shaun

shaun.wilkinson@which.net