Портал для гитаристов
gtars.ru

Cure — Maybe Someday

 

maybe someday

chords
Em    C     G     G/F#   Em7   C9    D      D(2)   D#    Em7(2) Em9  Em(2)  CaddG
0     0     3     3      3     3     2-0    0      0     0      0    7      3
0     1     3     3      3     3     3      3      4     0      7    0      1
0     0     0     0      0     0     2      0      0     7      0    0      0
2     2     0     0      2     2     0      4      5     5      5    5      2
2     0     2     2      2     3     #      5      6     7      7    7      3
0     #     3     2      0     #     #      #      #     0      0    0      #

Am    D9/B  F    FaddC   Em7(3)  Em7(4)
0     0     0    8       0       7
1     1     6    6       5-7-8   5
2     2     0    0       0       0
2     0     7    7       0       0
0     2     8    8       7       7
#     #     #    #       0       0

intro(3x)
riff 1
---------------------------------------|
-5-5--7-7--8-8--12-12--5-5--7-7--3-3-5-|
---------------------------------------|
---------------------------------------|
---------------------------------------|
---------------------------------------|

riff 2
-0--0-0-0----0--5-5-5-3-|
----------3-------------|
------------------------|
------------------------|
------------------------|
------------------------|

Em         C            G          G/F#
Em         C            G          G/F#
Em7        C9           G          D
Em         C            G          G/F#

verse
Em         C            G          G/F#
NO I WON'T DO IT AGAIN, I DON'T WANT TO PRETEND
Em         C            G          G/F#
IF IT CAN'T BE LIKE BEFORE I'VE GOT TO LET IT END
Em7        C9           G          D
I DON'T WANT WHAT I WAS, I HAD A CHANGE OF HEAD
Em         C            G          G/F#
BUT MAYBE SOMEDAY...
yeah MAYBE SOMEDAY

I'VE GOT TO LET IT GO AND LEAVE IT GONE
JUST WALK AWAY, STOP IT GOING ON
GET TOO SCARED TO JUMP IF I WAIT TOO LONG
BUT MAYBE SOMEDAY...

chorus
C     D(2)      D#        Em7(2)
I'LL SEE YOU SMILE AS YOU CALL MY NAME
C     D(2)      D#         Em9
START TO FEEL, AND IT FEELS THE SAME
C     D(2)      D#        Em(2)
AND I KNOW THAT MAYBE SOMEDAY'S COME
C                CaddG
MAYBE SOMEDAY'S COME...
AGAIN!

so tell me someday's come tell me some days come again...

verse

NO I WON'T DO IT SOME MORE, DOESN'T MAKE ANY SENSE
IF IT CAN'T BE LIKE IT WAS, I'VE GOT TO LET IT REST
I DON'T WANT WHAT I DID, I HAD A CHANGE OF TENSE
BUT MAYBE SOMEDAY...

chorus

I'LL SEE YOU SMILE AS YOU CALL MY NAME
START TO FEEL, AND IT FEELS THE SAME
AND I KNOW THAT MAYBE SOMEDAY'S COME
MAYBE SOMEDAY'S COME...

bridge
Am         D9/B    C         D(2)
IF I COULD DO IT AGAIN MAYBE JUST ONCE MORE
Am         D9/B    C         Cadd9
THINK I COULD MAKE IT WORK LIKE I DID IT BEFORE
Am         D9/B
IF I COULD TRY IT OUT
C         D(2)
IF I COULD JUST BE SURE

Coda
F    FaddC         Em7(3)  Em7(4)
THAT MAYBE SOMEDAY IS THE LAST TIME
F    FaddC         Em7(3)  Em7(4)
yeah MAYBE SOMEDAY IS THE END
F    FaddC         Em7(3)  Em7(4)
oh MAYBE SOMEDAY IS WHEN IT ALL STOPS
F    FaddC                    Em
OR MAYBE SOMEDAY ALWAYS COMES AGAIN...


    |-|
   -----
  -|-|-/

 
Аккорд EmАккорд CАккорд GАккорд G/F#Аккорд Em7Аккорд C9Аккорд DАккорд D(2)Аккорд D#Аккорд Em7(2)Аккорд Em9Аккорд Em(2)Аккорд CaddGАккорд AmАккорд D9/BАккорд FАккорд FaddCАккорд Em7(3)Аккорд Em7(4)Аккорд BEАккорд HADАккорд AАккорд Cadd9Аккорд DID

Cure — Maybe Someday

 Maybe Someday

By the Cure
from the album 'bloodflowers'

transcribed by Christian Reindel(creindel@gmx.de)
any questions or corrections- e-mail me

Normal tuning (E,A,D,G,b,E)

Intro 
     Em        C        G        D
E:|--0---------0--------0--------2-----------|
B:|--0---------1--------3--------3-----------|
G:|--0---------0--------0--------2-----------|
D:|--2---------2--------0--------0-----------|
A:|--2---------3--------2--------------------|
E:|--0------------------3--------------------|

 Lead Guitar ( 2 times)
E:|-------------------------|--------------------------|
B:|-5-5-5--3------3-3-5--0--|--5-5-5--3-------3-5-3--0-|
G:|-------------------------|--------------------------|
D:|-------------------------|--------------------------|
A:|-------------------------|--------------------------|
E:|-------------------------|--------------------------|


Verse 1

Em               C      G               D  
No I won't do it again, I don't want to pretend
....

But maybe someday

 Lead Guitar ( 2 times)
E:|-------------------------|--------------------------|
B:|-5-5-5--3------3-3-5--0--|--5-5-5--3-------3-5-3--0-|
G:|-------------------------|--------------------------|
D:|-------------------------|--------------------------|
A:|-------------------------|--------------------------|
E:|-------------------------|--------------------------|


Verse 2

Em                 C        G       D   
I' ve got to let it go and leave it gone
...

But maybe some day

    I'll see you smile as you call my name
    Start to feel,and it feels the same
    and I know that maybe someday's gone

E:|-0-------2--------3-----------0------------|
B:|-1-------3--------4-----------0------------|
G:|-0-------2--------3-----------0------------|
D:|-2-------0--------1-----------2------------|
A:|-3----------------------------2------------|
E:|------------------------------0------------|
    C       D       Dis          Em   

(P.S. I don't know the right chord on Dis, 
       but Dis is right- I tried on Bass)   

 maybe someday's come ... again

E:|-0-----------|
B:|-1-----------|
G:|-0-----------|
D:|-2-----------|
A:|-3-----------|
E:|-------------|

Em     C       G        D   
So tell me someday's come

Piano-solo

Em    C        G        D

Verse 3
Em                C         G           D    
No I won't do it some more, doesn't make sense
...

but maybe someday

    I'll see you smile as you call my name
    Start to feel,and it feels the same
    and I know that maybe someday's come
E:|-0-------2--------3-----------0------------|
B:|-1-------3--------4-----------0------------|
G:|-0-------2--------3-----------0------------|
D:|-2-------0--------1-----------2------------|
A:|-3----------------------------2------------|
E:|------------------------------0------------|
    C       D       Dis          Em   

 maybe someday's come 

E:|-0-----------|
B:|-1-----------|
G:|-0-----------|
D:|-2-----------|
A:|-3-----------|
E:|-------------|

   If I could do it again - maybe just once more
   Think I could make it work like I did it before
   If I could try it out - If I could just be 

E:|---------------2------------0-----------2------------|
B:|--2------------3------------1-----------3------------|
G:|--2------------4------------0-----------2------------|
D:|--2------------4------------2-----------0------------|
A:|--0------------2------------3------------------------|
E:|-----------------------------------------------------|
     A            B            C           D 
   sure
   That maybe someday the is the last time
   ...
E:|--0-------------------------------------|--0---------|
B:|--1-------------------------------------|--0---------|
G:|--2-------------------------------------|--0---------|
D:|--3-------------------------------------|--2---------|
A:|--3-------------------------------------|--2---------|
E:|--1-------------------------------------|--0---------|
     Fm                                       Em
End. 
Аккорд EАккорд EmАккорд CАккорд GАккорд DАккорд AАккорд BАккорд Fm