Портал для гитаристов
gtars.ru

Cure — Out Of This World

 Out of this World

By the Cure
from album 'bloodflowers'

transcribed by Christian Reindel(creindel@gmx.de)
any questions or corrections- e-mail me

Normal tuning (E,A,D,G,b,E)

Intro 

Em   G         (3 times)

Bm   A         (3 times)

D    C    Bm   (3 times)

A    Bm   Cis  (1 time)

D    Em        (4 times)

Lead-guitar

      D               Em          D                   Em
|------------------------------|---------------------------|
|------------------------------|---------------------------|
|---14-14-14-12-11-12^11^12----|---14-14-14--14-12-11------|
|12-------------------------12-|12-------------------12/14-|
|------------------------------|---------------------------|
|------------------------------|---------------------------|

    D                 Em            D                 Em
|------------------------------|---------------------------|
|------------------------------|---------------------------|
|---14-14-14-12-11-12^11^12----|--------------11---11------|
|12-------------------------12-|-12--12-----12---12---12/14|
|------------------------------|---------------------------|
|------------------------------|---------------------------|



Verse 1

 D                           Em
When we look back at it all  as I know we will
...

Bm                         A
And I know we have to go -I realize 

Bm                        A
we only get to stay so long
...

D                 Em
where we belong
...

Verse 2

 D                              Em
When we think back to all this and I'm sure we will
...

Bm                         A
And I know we have to go -I realize 

Bm                             A 
We always have to say goodbye 
...

D                     C       Bm
But real lives are the reason why

D                     C       Bm
We want to live another live

D                     C       Bm
We want to feel another time

A                     Bm     Cis
Another time


Piano-solo

D   Em  (4 times)

      D               Em          D                   Em
|------------------------------|---------------------------|
|------------------------------|---------------------------|
|---14-14-14-12-11-12^11^12----|---14-14-14--14-12-11------|
|12-------------------------12-|12-------------------12/14-|
|------------------------------|---------------------------|
|------------------------------|---------------------------|

    D                 Em            D                 Em
|------------------------------|---------------------------|
|------------------------------|---------------------------|
|---14-14-14-12-11-12^11^12----|--------------11---11------|
|12-------------------------12-|-12--12-----12---12---12/14|
|------------------------------|---------------------------|
|------------------------------|---------------------------|


Verse 3

 D                           Em
When we look back at it all  as I know we will
...

Bm                         A
And I know we have to go -I realize 

Bm                        A
we always have to turn away

...

D                     C       Bm
But real lives are why we stay

D                     C       Bm
for another dream   another day

D                     C       Bm
for another world   another way

A                     Bm     Cis
for another way

Outro

D                          Em
One last time before it's over

D                          Em
One last time before the end

D                          Em          D
One last time before it's time to go again


End. 
Аккорд EАккорд EmАккорд GАккорд BmАккорд AАккорд DАккорд C

Cure — Out Of This World

  ---------------------------
| OUT OF THIS WORLD         |
|                           |
| Bloodflowers (2000)       |
|                           |
| www.thetwilightgarden.com |
 ---------------------------

BASS

http://www.geocities.com/cure_dib/
Joshua Cross (cure_dib@yahoo.com)

as far as i know, i'm the first person to attempt a tab of
the bass for this song. i don't know if this is completely
accurate, but i know that it is very close.

PART 1

G -----------------------------------------|
D -----------------------------------------|
A -7--7--7--7-9-10-10--10-10-10---12-10-12-|
E -----------------------------------------|

G -----------------------------------------|
D -----------------------------------------|
A -7--7--7--7-9-10-10---10-10-10---9-7-9---|
E -----------------------------------------|

G ------------------------------------------

D ------------------------------------------|
A -7--7--7--7-9-10-10---10-10-/-14-14-14-14-|
E ------------------------------------------|


PART 2a
PART 2 is 2a once, 2b once

G --------------------------------|
D --------------------------------|
A -2--2--2---2-0--0-0-0-----0-----|     x2
E ---------3--------------2---3-2-|

G --------------------------------|
D --------------------------4-2-4-|
A -2--2--2---2-0--0-0-0-----------|
E ---------3----------------------|

PART 2b

G --------------------------------|
D --------------------------4-2-4-|
A -5--5--5-3--3-3--2-2-2----------|     x2
E --------------------------------|

G --------------------------------|
D --------------------------4-5-4-|
A -5--5--5-3--3-3--2-2-2----------|
E --------------------------------|

G -------------------------------------|
D -------------------------------------|
A -0--0--0-2--2-2--4-4-4-/-12-12-12-12-|
E -------------------------------------|

PART 3

G -------------------------------|
D ----------------------7--5--7--|
A -5--5--5---5-7-----------------|
E ---------7---------------------|

G -------------------------------|
D -------------------------------|
A -5--5--5---5-7-----------------|
E ---------7---------------------|

G -------------------------------|
D ----------------------7--5--7--|
A -5--5--5---5-7-----------------|
E ---------7---------------------|

G -------------------------------|
D ----------------------4--5--4--|
A -5--5--5---5-7-----------------|
E ---------7---------------------|


part 1  x1
part 2  x1
part 3  x3
part 2a X1
part 3  X2
part 2  X1
part 3  X3
part 2  X1
part 1  X1 
Аккорд GАккорд DАккорд AАккорд E

Cure — Out Of This World

 Out of this World

By the Cure
from album 'bloodflowers'

transcribed by Christian Reindel(creindel@gmx.de)
any questions or corrections- e-mail me

Normal tuning (E,A,D,G,b,E)

Intro

Em   G         (3 times)

Bm   A         (3 times)

D    C    Bm   (3 times)

A    Bm   Cis  (1 time)

D    Em        (4 times)

      D                    Em          D                   Em
E:|---------------------------------|---------------------------------|
B:|---------------------------------|---------------------------------|
G:|----14-14-14-12-11-12^11^12------|-----14-14-14--14-12-11----------|
D:|-12--------------------------12--|--12---------------------14------|
A:|---------------------------------|---------------------------------|
E:|---------------------------------|---------------------------------|

    D                     Em            D                 Em
E:|---------------------------------|---------------------------------|
B:|---------------------------------|---------------------------------|
G:|----14-14-14-12-11-12^11^12------|---------------11---11-----------|
D:|-12--------------------------12--|-12--12------12---12---12/14-----|
A:|---------------------------------|---------------------------------|
E:|---------------------------------|---------------------------------|


Verse 1

 D                           Em
When we look back at it all  as I know we will
...

Bm                         A
And I know we have to go -I realize

Bm                        A
we only get to stay so long
...

D                 Em
where we belong
...

Verse 2

 D                              Em
When we think back to all this and I'm sure we will
...

Bm                         A
And I know we have to go -I realize

Bm                             A
We always have to say goodbye
...

D                     C       Bm
But real lives are the reason why

D                     C       Bm
We want to live another live

D                     C       Bm
We want to feel another time

A                     Bm     Cis
Another time


Piano-solo

D   Em  (4 times)

      D                    Em          D                   Em
E:|---------------------------------|---------------------------------|
B:|---------------------------------|---------------------------------|
G:|----14-14-14-12-11-12^11^12------|-----14-14-14--14-12-11----------|
D:|-12--------------------------12--|--12---------------------14------|
A:|---------------------------------|---------------------------------|
E:|---------------------------------|---------------------------------|

    D                     Em            D                 Em
E:|---------------------------------|---------------------------------|
B:|---------------------------------|---------------------------------|
G:|----14-14-14-12-11-12^11^12------|---------------11---11-----------|
D:|-12--------------------------12--|-12--12------12---12---12/14-----|
A:|---------------------------------|---------------------------------|
E:|---------------------------------|---------------------------------|


Verse 3

 D                           Em
When we look back at it all  as I know we will
...

Bm                         A
And I know we have to go -I realize

Bm                        A
we always have to turn away

...

D                     C       Bm
But real lives are why we stay

D                     C       Bm
for another dream   another day

D                     C       Bm
for another world   anoher way

A                     Bm     Cis
for another way

Outro

D                          Em
One last time before it's over

D                          Em
One last time before the end

D                          Em          D
One last time before it's time to go again


End. 
Аккорд EАккорд EmАккорд GАккорд BmАккорд AАккорд DАккорд C