Портал для гитаристов
gtars.ru

Cure — There Is No If

 VERSE:
G -----------------------------------------------------------------------|
D -----------------------------------------------------------------------|
A -2---2-2-2-2-2-2---0---0-0-0-0-0-0-------------------------------------|  x3
E -------------------------------------0---0-0-2-0-0-0---0---0-0-2-0-0-0-|

G -----------------------------------------------------------------------|
D -----------------------------------------------------------------------|
A -2---2-2-2-2-2-2---0---0-0-0-0-0-0-------------------------------------|
E -------------------------------------0---0-0-2-0-0-0---0---0-0-0-2-2-2-|

CHORUS:
G -----------------------------------------------------------------------|
D -----------------------------------------------------------------------|
A -----------------------------------------------------------------------|  x2
E -3-3-3-3-3-2-2-2---5-5-5-5-5-2-2-2---3-3-3-3-3-2-2-2---5-5-5-5-5-2-2-2-|

G -----------------------------------------------------------------------|
D -----------------------------------------------------------------------|
A -5-5-5-5-5-5-5-5---------------------------------------7-7-7-7-7-7-7-7-|  x3
E -------------------5-5-5-5-5-5-5-5---7-7-7-7-7-7-7-7-------------------|

G -------------------------------------|
D -------------------------------------|
A -------------------------------------|  x3
E -5-5-5-5-3-3-3-3---0-----------------| 
Аккорд GАккорд DАккорд AАккорд E

Cure — There Is No If

 Verse:
Play 4 times
|-0-0-0-0-0-0-|-0-0-0-0-0-0-0-0-|-2-2-2-0-|-2-2-2-0-|
|-3-3-3-3-3-3-|-2-2-2-2-2-3-2-0-|-0-0-0-0-|-0-0-0-0-|
|-4-4-4-4-4-4-|-4-4-4-4-4-4-4-4-|-4-4-4-4-|-4-4-4-4-|
|-4-4-4-4-4-4-|-4-4-4-4-4-4-4-4-|-4-4-4-4-|-4-4-4-4-|
|-2-2-2-2-2-2-|-0-0-0-0-0-0-0-0-|-0-0-0-0-|-0-0-0-0-|
|-0-0-0-0-0-0-|-0-0-0-0-0-0-0-0-|-0-0-0-0-|-0-0-0-0-|

Second Verse part one:
Play twice
|-0-0-0-0-0-0-0-0-0-|
|-0-0-0-0-0-0-0-0-0-|
|-4-4-4-4-4-4-4-4-4-|
|-4-4-4-4-4-4-4-4-4-|
|-0-0-0-0-0-0-0-0-0-|
|-2-2-2-2-2-2-2-2-2-|

Second Verse part two:
Play once then go back to the first part of the second verse
|-0-0-0-0-0-0-0--0-0-0-|-0-0-0-0-0-0-0--0-0-0-|
|-0-0-0-0-0-0-0--0-0-0-|-0-0-0-0-0-0-0--0-0-0-|
|-4-4-4-4-4-4-4--4-4-4-|-4-4-4-4-4-4-4--4-4-4-|
|-2-2-2-2-4-4-2--2-2-2-|-2-2-2-2-4-4-2--2-2-2-|
|-0-0-0-0-0-0-0--0-0-0-|-0-0-0-0-0-0-0--0-0-0-|
|-3-3-3-3-3-3-3--3-3-3-|-0-0-0-0-0-0-0--0-0-0-|

Chorus part one:
Play twice
|-0-0-0-0-0-0-0-0-0-0-|-0-0-0-0-0-0-0-0-0-|-0-0-0-0-0-0-0-0-0-0-0-0-0/0-0-|
|-7-7-7-7-7-7-7-7-7-7-|-7-7-7-7-7-7-7-7-7-|-0-0-0-0-0-0-0-0-0-0-0-0-0/0-0-|
|-0-0-0-0-0-0-0-0-0-0-|-0-0-0-0-0-0-0-0-0-|-7-7-7-7-7-7-7-7-7-7-7-7-7/9-9-|
|-7-7-7-7-7-7-7-7-7-7-|-0-0-0-0-0-0-0-0-0-|-0-0-0-0-0-0-0-0-0-0-0-0-0/0-0-|
|-5-5-5-5-5-5-5-5-5-5-|-7-7-7-7-7-7-7-7-7-|-5-5-5-5-5-5-5-5-5-5-5-5-5/7-7-|
|-0-0-0-0-0-0-0-0-0-0-|-5-5-5-5-5-5-5-5-5-|-7-7-7-7-7-7-7-7-0-0-0-0-0/0-0-|

Chorus part two:
Play once
|-0-0-0-0-0-0-0-0-0-0-0-0-0-0-|
|-0-0-0-0-0-0-0-0-0-0-0-0-0-0-|
|-7-7-7-7-7-7-7-7-7-6-6-6-6-6-|
|-0-0-0-0-0-0-0-0-0-0-0-0-0-0-|
|-7-7-7-7-7-7-7-7-7-7-7-7-7-7-|
|-5-5-5-5-5-5-5-5-5-5-5-5-5-5-|

Chorus part three:
Play three times (a bit longer the second time around)
|-0-0-0-0-0-0-|
|-0-0-0-0-0-0-|
|-4-4-4-4-4-0-|
|-0-0-0-0-0-0-|
|-5-5-5-5-5-5-|
|-5-5-5-5-3-0-|