Портал для гитаристов
gtars.ru

Cure — Untitled

 Untitled

by the Cure
from the fabulous album 'disintegration'

transcribed by Christian Reindel(creindel@gmx.de)
any questions or corrections- e-mail me


Intro 
accordion
          3x                  2x
E|---------------------|---------------------|
B|--10---12---7---5----|--7--5--3----0--5----|
G|---------------------|---------------------|
D|---------------------|---------------------|
A|---------------------|---------------------|
E|---------------------|---------------------|


guitar comes in 

part 1   
E|---------------------|-----------------|----------------------|
B|--10--8-7--0--3--5-5-|--10--8-7--0--5--|---10--8-7--0--3--5-5-|
G|---------------------|-----------------|----------------------|
D|---------------------|-----------------|----------------------|
A|---------------------|-----------------|----------------------|
E|---------------------|-----------------|----------------------|


part 2
E|------------------------|----------------------------|
B|--7-7--7--8--7-7--0--5--|--7-7--7--8--7-7--0--5------|
G|------------------------|----------------------------|
D|------------------------|----------------------------|
A|------------------------|----------------------------|
E|------------------------|----------------------------|

play only part 2 when the guitar solo starts in the outro

Outro
accordion (play until the end)

E|---------------------|
B|--7--5--3----0--5----|
G|---------------------|
D|---------------------|
A|---------------------|
E|---------------------|

end. 

Cure — Untitled

 |-------------------------------------------------------------------------------------|
|-------------------------------------------------------------------------------------|
|-------------------------------------------------------------------------------------|
|--19-17-16-------------19-17-16-------19-17-16--------------------16-17-16-----------|
|-----------17-17/19-19----------17-19----------17-17/19-19--17-19----------17-14-19--|
|-------------------------------------------------------------------------------------|
This is played through most of the song

|---------------------|
|---------------------|
|---------------------|
|--19-19-19-19-17-16--|
|---------------------|
|---------------------|
At the end random pieces of guitaring comes in like the above, 
played a couple of times.

|---------------------|
|---------------------|
|---------------------|
|---------------------|
|--17-17-17-17-19-17--|
|---------------------|
This is played about twice

|---------------------------------------------------------------------|
|---------------------------------------------------------------------|
|---------------------------------------------------------------------|
|--19-19-19-19--19-19-17-16-16--19-17-16-16--19-17-16-17-16-----------|
|-----------------------------------------------------------17-17-17--|
|---------------------------------------------------------------------|