Портал для гитаристов
gtars.ru

Cure — Walk

 Verse:
----2-2-0-0---------
------------2-2-2-2-
0--0----------------
------3-3-0-0-0-0---
A    G   E       

Chorus
---2-2-5-5-7-7-7-7-
----------0-0-0-0--
0-0-3-3------------
-------------------

Bridge:
9-10-12-9-7-9-5---7-7-7-7-5-7-5-4--
-----------------------------------
-----------------------------------
----------------------------------- 
Аккорд AАккорд GАккорд E