Портал для гитаристов
gtars.ru

Cure — Want

 1st RIFF:
G -------------------------------------------------------------------------------------------|
D -------------------------------------------------------------------------------------------|
A -6-6--6--6-6-6-6-6--6---4-4--4--4-4-4-4-4--4---6-6--6--6-6-6-6-6--6---4-4--4--4-4-4-4-4--4-|
E -------------------------------------------------------------------------------------------|

G -------------------------------------------------------------------------------------------|
D -------------------------------------------------------------------------------------------|
A -6-6--6--6-6-6-6--6------------------------------------------------------------------------|
E ----------------------4-4--4--4-4-4-4--4-/-11-11--11--11-11-11-11--11---7-7--7--7-7-7-7--7-|

2nd RIFF:
G --------------------------------------------------------------------------------------------|
D --------------------------------------------------------------------------------------------|
A --------------------------------------------------------------------------------------------|
E -11-11--11-11-11-11--11---13-13--13-13-13-13--13---7-7--7-7-7-7-7---7---4-4--4-4-4-4-4--4-/-|

G --------------------------------------------------------------------------------------------|
D --------------------------------------------------------------------------------------------|
A --------------------------------------------------------------------------------------------|
E -11--11-11-11-11--11---4-4--4--4-4-4-4--4-/-11-11--11--11-11-11-11--11---7-7--7--7-7-7-7--7-| 
Аккорд GАккорд DАккорд AАккорд E