Портал для гитаристов
gtars.ru

Cynic — Celestial Voyage

 Lоок fоr a mоrе detailed and соnsтаnт updated vеrsiоn with роwеrтав at 
http://www.cynicalsphere.соm/

                                CELESTIAL VOYAGE
                              As rесоrdеd by Cynic
                           (Frоm the 1993 Album FOCUS)

Wоrds by Paul Masvidal Music by Cynic
Transcribed by Jeff Litvak

Gtr I (E A D G B E) - 'Paul (disтоrтiоn)'
Gtr II (E A D G B E) - 'Jаsоn (disтоrтiоn)'
Gtr III (E A D G B E) - 'Paul (clean тоnе)'
Gtr IV (E A D G B E) - 'Jаsоn (clean тоnе)'
Gtr V (E A D G B E) - 'Paul (lead)'
Gtr VI (E A D G B E) - 'Jаsоn (lead)'

  Q=130
 4/4
  Gtr I
   PM-|              PM-|       PM|         PM|       PM|    PM|         PM   PM|         PM---
   S  S  S  S  S  S  S   S S S  S  S  S   S S S    S  S S  S S  S  S  S  S  S S  S   S  S S S
|-----------------------------------------------|---------------------------------------------|
|-----------------------------------------------|-----------------10-10-----------------------|
|-------12-12-12-12--------9-9-------11--11-----|-12------11---------------12-------11-11-----|
|--9--9-------------11--11-----11-11--------9-9-|-----9-9----9--9--------9----9--9--------9-9-|
|-----------------------------------------------|---------------------------------------------|
|-----------------------------------------------|---------------------------------------------|
|
| Gtr II
|                                                               PM---|   ~~
|                                                               |--3--|
|  Q.                Q.               Q            Q.           S  S  S  Q       Q
|-----------------------------------------------|---------------------------------------------|
|-----------------------------------------------|---------------------------------------------|
|-----------------------------------------------|-----------------------16------16-----------|
|-10--------------------------------------------|--2-----------14-14-14-14------14-----------|
|--7-----------------9----------------9--------|--2------------------------------------------|
|--------------------9----------------7--------|--0------------------------------------------|


 -----|              PM-|       PM|          PM|         PM---------|     PM----------|   PM--|
   S  S  S  S  S  S  S   S S S  S  S  S   S  S  S    S   S  S  S  S  S S  S  S  S   S S S S S S
|-------------------------------------------------|-----------------------------------------------|
|-------------------------------------------------|-----------------------------------------------|
|-------12-12-12-12--------9-9-------11--11-------|-----------------------------------------------|
|--9--9-------------11--11-----11-11--------------|--9-----------------9----------------9---------|
|-------------------------------------------12-12-|-----12-12-12-12-10---10-10-10--10-9---9-9-9---|
|-------------------------------------------------|-----------------------------------------------|
|
|                                                                      PM---|               PM--|
|                                                                      |--3--|              |-3-|
|  Q.                Q.               Q              Q.                S  S  S  Q.          S S S
|-------------------------------------------------|-----------------------------------------------|
|-------------------------------------------------|-----------------------------------------------|
|-------------------------------------------------|-----------------------------------------------|
|-10----------------------------------------------|--2--------------------------------------------|
|--7-----------------9----------------9----------|--2--------------------------------------------|
|--------------------9----------------7----------|--0-----------------0--0--0--0-----------0-0-0-|


   PM-|              PM-|       PM|         PM|       PM|     PM|        PM    PM|       PM---
   S  S  S  S  S  S  S   S S S  S  S  S   S S S    S  S S  S  S  S  S  S S  S  S  S  E   S S
|-----------------------------------------------|--------------------------------------------|
|-----------------------------------------------|------------------10-10---12-------12------|
|-------12-12-12-12--------9-9-------11--11-----|-12------11------------------------11------|
|--9--9-------------11--11-----11-11--------9-9-|-----9-9-----9--9-------9-----9--9------9-9-|
|-----------------------------------------------|--------------------------------------------|
|-----------------------------------------------|--------------------------------------------|
|
|                                                             PM---|        PM---|
|                                                             |--3--|       |--3--|
|  Q.                Q.               Q            Q.         S  S  S  S S  S  S  S  Q
|-----------------------------------------------|--------------------------------------------|
|-----------------------------------------------|--------------------------------------------|
|-----------------------------------------------|-----------------------------------16------|
|-10--------------------------------------------|--2---------14-14-14-14---14-14-14-14------|
|--7-----------------9----------------9--------|--2-----------------------------------------|
|--------------------9----------------7--------|--0-----------------------------------------|


 -----|              PM-|       PM|          PM|          PM------|        PM-----|
   S  S  S  S  S  S  S   S S S  S  S  S   S  S  S    E    S  S  S  S  E    S  S S S Q
|-------------------------------------------------|------------------------------------||
|-------------------------------------------------|------------------------------------||
|-------12-12-12-12--------9-9-------11--11-------|------------------------------------||
|--9--9-------------11--11-----11-11--------------|--9----------------9-------------9--||
|-------------------------------------------12-12-|-12---12-12-10-10-10---10-10-9-9-9--||
|-------------------------------------------------|------------------------------------||
|
|                                                                     PM--|
|                                                                     |-3--|
|  Q.                Q.               Q              Q.               S S  S  H
|-------------------------------------------------|------------------------------------||
|-------------------------------------------------|------------------------------------||
|-------------------------------------------------|------------------------------------||
|-10----------------------------------------------|--2---------------------------------||
|--7-----------------9----------------9----------|--2---------------------------------||
|--------------------9----------------7----------|--0----------------0-0--0--0--------||


  Gtr III
  H                 H                   Q       Q       Q       Q
|-----------------^-7---------------|----------------------------------|
|-----------------^-7---------------|----------------------------------|
|-----------------^11---------------|----------------------------------|
|-----------------^-9---------------|----------------------------------|
|-----------------^-7---------------|---7-------5---------------5------|
|-0---------------^-0---------------|-------------------7--------------|
|
| Gtr IV
| PM--------------------------------------------------------------------
| S S S S S S S S   S S S S S S S S   S S S S S S S S S S S S S S S S
|-----------------------------------|----------------------------------|
|-----------------------------------|----------------------------------|
|-----------------------------------|----------------------------------|
|-9-------8-7---------9-----8-7-----|-------9-----8-7-------9-----8-7--|
|---8-7-9-----9-8---7---8-9-----9-8-|-7-7-7---8-9-----9-8-7---8-9------|
|-----------------------------------|----------------------------------|


   H                H                     E    Q       Q       E   Q
|------------------^3---------------|-------------------------------------|
|------------------^3---------------|----------0---------------0----------|
|------------------^7---------------|------------------5------------------|
|------------------^5---------------|---^(2)-----------------------5------|
|--3---------------^3---------------|---^-3-------------------------------|
|-----------------------------------|-------------------------------------|
|                                         W
|
|----------------------------------------------------------------------|
|  S S S S S S S S  S S S S S S S S   S   S  S S S S S S S S S S S S S S
|-----------------------------------|-------------------------------------|
|-----------------------------------|-------------------------------------|
|-----------------------------------|-------------------------------------|
|--9-------8-7--------9-----8-7-----|----------9-----8-7-------9-----8-7--|
|----8-7-9-----9-8--7---8-9-----9-8-|-7---7--7---8-9-----9-8-7---8-9------|
|-----------------------------------|-------------------------------------|


  H                 H                   Q       Q       Q       Q
|-----------------^-7---------------|----------------------------------|
|-----------------^-7---------------|----------------------------------|
|-----------------^11---------------|----------------------------------|
|-----------------^-9---------------|----------------------------------|
|-----------------^-7---------------|---7-------5---------------5------|
|-0---------------^-0---------------|-------------------7--------------|
|
| PM--------------------------------------------------------------------
| S S S S S S S S   S S S S S S S S   S S S S S S S S S S S S S S S S
|-----------------------------------|----------------------------------|
|-----------------------------------|----------------------------------|
|-----------------------------------|----------------------------------|
|-9-------8-7---------9-----8-7-----|-------9-----8-7-------9-----8-7--|
|---8-7-9-----9-8---7---8-9-----9-8-|-7-7-7---8-9-----9-8-7---8-9------|
|-----------------------------------|----------------------------------|


   H                H                    H                H
|------------------^3---------------|------------------------------------||
|------------------^3---------------|------------------------------------||
|------------------^7---------------|------------------------------------||
|------------------^5---------------|---^7---------------^9--------------||
|------------------^3---------------|---^5---------------^7--------------||
|--3---------------^3---------------|---^3---------------^5--------------||
|
|---------------------------------------------------------------------|
|  S S S S S S S S  S S S S S S S S   S  S S S S S S S S  S S S S S S S
|-----------------------------------|------------------------------------||
|-----------------------------------|------------------------------------||
|-----------------------------------|------------------------------------||
|--9-------8-7--------9-----8-7-----|--------9-----8-7--------9-----8-7--||
|----8-7-9-----9-8--7---8-9-----9-8-|-7--7-7---8-9-----9--8-7---8-9------||
|-----------------------------------|------------------------------------||


  Gtr I
   PM-|              PM-|       PM|         PM|       PM|    PM|        PM   PM|        PM---
   S  S  S  S  S  S  S   S S S  S  S  S   S S S    S  S S  S S S  S  S  S  S S S  S   S S S
|-----------------------------------------------|-------------------------------------------|
|-----------------------------------------------|----------------10-10----------------------|
|-------12-12-12-12--------9-9-------11--11-----|-12------11--------------12-----11--11-----|
|--9--9-------------11--11-----11-11--------9-9-|-----9-9----9-9--------9----9-9--------9-9-|
|-----------------------------------------------|-------------------------------------------|
|-----------------------------------------------|-------------------------------------------|
|
| Gtr II
|                                                                 PM---|   ~~
|                                                                 |--3--|
|  Q.                Q.               Q            Q.             S  S  S  Q      Q
|-----------------------------------------------|-------------------------------------------|
|-----------------------------------------------|-------------------------------------------|
|-----------------------------------------------|-------------------------16-----16--------|
|-10--------------------------------------------|--2-------------14-14-14-14-----14--------|
|--7-----------------9----------------9--------|--2----------------------------------------|
|--------------------9----------------7--------|--0----------------------------------------|


 -----|              PM-|       PM|          PM|            PM|          PM|
   S  S  S  S  S  S  S   S S S  S  S  S   S  S  S    Q      S  S  Q      S S Q
|-------------------------------------------------|-----------------------------||
|-------------------------------------------------|-----------------------------||
|-------12-12-12-12--------9-9-------11--11-------|-----------------------------||
|--9--9-------------11--11-----11-11--------------|--9------------9----------9--||
|-------------------------------------------12-12-|-12-----10-10-10------9-9-9--||
|-------------------------------------------------|-----------------------------||
|
|                                                              PM---|
|                                                              |-3--|
|  Q.                Q.               Q              Q.        S  S S H
|-------------------------------------------------|-----------------------------||
|-------------------------------------------------|-----------------------------||
|-------------------------------------------------|-----------------------------||
|-10----------------------------------------------|--2--------------------------||
|--7-----------------9----------------9----------|--2--------------------------||
|--------------------9----------------7----------|--0---------0--0-0-0---------||


  Gtr I
           PM----|               PM|                                 PM|
   Q       E   S S  Q        E   S S    Q        E   E   E   E   E   S S
|--7----------------7--------7-------|--7---------------------------------|
|--7----------------7--------7-------|--7-------10------------------------|
|-11---------------11-------11-------|-11------------7-------7------------|
|--9----------------9--------9-------|--9----------------9-------9--------|
|--7----------------7----------------|--7---------------------------------|
|--0-------0---0-0--0------------0-0-|--0----------------------------0-0--|
|
| Gtr II
|  PM----------------------------------------------------------------------
|  S S S S S S S S  S S S S  S S S S    S S S S  S S S S S S S S S S S S
|------------------------------------|------------------------------------|
|------------------------------------|------------------------------------|
|------------------------------------|------------------------------------|
|--9-------8-7--------9------8-7-----|--------9------8-7-------9-----8-7--|
|----8-7-9-----9-8--7---8-9------9-8-|--7-7-7----8-9-----9-8-7---8-9------|
|------------------------------------|------------------------------------|


           PM----|             PM|           PM|     PM          PM|
   E   E   E   S S Q       E   S S   E   E   S S E   S S E   E   S S
|--3---3-----------3-------3-------|----------------------------------|
|--3---3-----------3-------3-------|----------------------------------|
|--7---7-----------7-------7-------|-0---4-------5-------4---0--------|
|--5---------------5-------5-------|-2---2-------2-------2---2--------|
|--3-------3---3-3-3-------3---0-0-|-3---3---3-3-3---3-3-3---3--------|
|----------------------------------|-----------------------------0-0--|
|
|------------------------------------------------------------------|
|  S S S S S S S S S S S S S S S S   S S S S S S S S S S S S S S S S
|----------------------------------|----------------------------------|
|----------------------------------|----------------------------------|
|----------------------------------|----------------------------------|
|--9-------8-7-------9-----8-7-----|-------9-----8-7-------9-----8-7--|
|----8-7-9-----9-8-7---8-9-----9-8-|-7-7-7---8-9-----9-8-7---8-9------|
|----------------------------------|----------------------------------|


                PM|               PM|                 PM|               PM----
   Q.           S S  Q        E   S S    Q.           S S  Q        E   S S
|--7-----------------7--------7-------|--7-----------------7--------7--------|
|--7-----------------7--------7-------|--7-----------------7--------7--------|
|-11----------------11-------11-------|-11----------------11-------11--------|
|--9-----------------9--------9-------|--9-----------------9--------9--------|
|--7-----------------7----------------|--7-----------------7-----------------|
|--0------------0-0--0------------0-0-|--0------------0-0--0------------0-0--|
|
|  PM-------------------------------------------------------------------------
|  S  S S S S S S S  S S S S  S S S S    S  S S S S S S S  S S S S  S S S S
|-------------------------------------|--------------------------------------|
|-------------------------------------|--------------------------------------|
|-------------------------------------|--------------------------------------|
|--9--------8-7--------9------8-7-----|---------9-----8-7--------9------8-7--|
|-----8-7-9-----9-8--7---8-9------9-8-|--7--7-7---8-9------9-8-7----8-9------|
|-------------------------------------|--------------------------------------|


 --------|                     PM|                   PM|         PM|
   E   S S E   E   Q       E   S S   Q       E   E   S S E   E   S S
|----------3---3---3-------3-------|-3-------3---3-------3---3--------||
|----------3---3---3-------3-------|-3-------3---3-------3---3--------||
|----------7---7---7-------7-------|-7-------7---7-------7---7--------||
|----------5-------5---------------|-5-------5-----------5------------||
|--3---3-3-3-------3-----------3-3-|-3-------3-------3-3-3-------0-0--||
|----------------------------------|----------------------------------||
|
|------------------------------------------------------------------|
|  S S S S S S S S S S S S S S S S   S S S S S S S S S S S S S S S S
|----------------------------------|----------------------------------||
|----------------------------------|----------------------------------||
|----------------------------------|----------------------------------||
|--9-------8-7-------9-----8-7-----|-------9-----8-7-------9-----8-7--||
|----8-7-9-----9-8-7---8-9-----9-8-|-7-7-7---8-9-----9-8-7---8-9------||
|----------------------------------|----------------------------------||


  Gtr I
  PM-----------------------------------------------------------------
  S S S S S S S S S S S S S S S S   S S S S S S S S S S S S S S S S
|---------------------------------|---------------------------------|
|---------------------------------|---------------------------------|
|-5-5-4-4---------2-2-2-2---------|---------------------------------|
|---------5-5-5-5---------4-4-4-4-|---------5-5-----4-4-------------|
|---------------------------------|-0-0-0-0-----0-0---------5-5-----|
|---------------------------------|---------------------6-6-----6-6-|
|
| Gtr II
| H               H                 H               H
|---------------------------------|---------------------------------|
|---------------------------------|---------------------------------|
|-5-------------------------------|---------------------------------|
|-5---------------2---------------|-7---------------8---------------|
|-3---------------2---------------|-7---------------8---------------|
|-----------------0---------------|-5---------------6---------------|


 -----------------------------------------------|       PM----|
  S S S S  S  S S S S S S S S  S S S    S  S  S  S  Q   S S S S  Q
|------------------------------------|-------------------------------|
|------------------------------------|-------------------------------|
|------------------------------------|--------------7----------------|
|-------------------7-7--------------|--------------7------------7---|
|-----7-7-10-10---------7-7------9-9-|--------------9------------7---|
|-7-7-----------7-7---------7--7-----|-10-10-10-10-10---9-9-9-9--9---|
|
|               PM|                     PM------|       PM----|
|   E   Q       S S E       Q.          S  S  S  S  Q   S S S S  Q
|------------------------------------|-------------------------------|
|------------------------------------|-------------------------------|
|------------------------------------|-------------------------------|
|---9---------------9----------------|-------------12-----------11---|
|---9---------------9----------------|--------------9------------7---|
|---7-----------7-7-7----------------|-10-10-10-10-10---9-9-9-9--9---|


  PM--------------------------------------------|        PM----|
  S S S S  S  S S S S S S  S S S S S    S  S  S  S  Q    S S S S  E  S S
|------------------------------------|------------------------------------||
|------------------------------------|------------------------------------||
|------------------------------------|--------------7---------------------||
|-------------------7-7--------------|--------------7-------------7-------||
|-----7-7-10-10---------7--7-----9-9-|--------------9-------------7-------||
|-7-7-----------7-7----------7-7-----|-10-10-10-10-10----9-9-9-9--9--5h6/-||
|
|               PM|                     PM------|        PM----|     PM|
| E   Q         S S E   Q.              S  S  S  S  Q    S S S S  E  S S
|------------------------------------|------------------------------------||
|------------------------------------|------------------------------------||
|------------------------------------|------------------------------------||
|-9-----------------9----------------|-------------12------------11-------||
|-9-----------------9----------------|--------------9-------------7-------||
|-7-------------7-7-7----------------|-10-10-10-10-10----9-9-9-9--9--0-0--||


  Gtr V
  S  S  S S   S  S  S  S  S  S   S  S  S  S  S  S
|-------------------------------17h20h22p20p17----|
|---------------------10s13h17/-------------------|
|------------------11-----------------------------|
|---------9--10h13-----------------------------19-|
|------10-----------------------------------------|
|-7h12--------------------------------------------|
|
| Gtr II
|                   PM|                      PM|
| Q.                S  S  Q.                 S  S
|-------------------------------------------------|
|-------------------------------------------------|
|-------------------------9-----------------------|
|-2-----------------------9-----------------------|
|-2-----------------------7-----------------------|
|-0-----------------0--0--0------------------0--0-|


                   3_________/
                                                    ~~
   S     +E       +E         +S    E.      +S   E   Q
|-------------------------------------------------------|
|--------------------------------/19------(19)h20--19---|
|-19b21-(19)-----(19)-------(19)------------------------|
|-------------------------------------------------------|
|-------------------------------------------------------|
|-------------------------------------------------------|
|
|                                                   PM|
|  E         +S    E.     E        E   E        E   S S
|-------------------------------------------------------|
|-------------------------------------------------------|
|-------------------------------------------------------|
|--6---------(6)s==4------0--------4h==5--------4-------|
|--7---------(7)s==5------0--------5--(5)-------5-------|
|---------------------------------------------------0-0-|


                                                    |-----3-----|
   S   S   S   S   S   S   S   S   S    S   S   S   E    E      E
|-24p=19------19--------------------------------------------------|
|---------20------20----------------------------------------------|
|---------------------19s=16------16------------------------------|
|-----------------------------17-------17----------------------12s|
|------------------------------------------19--19-----------------|
|--------------------------------------------------17---15----10s|
|
|                          PM-|                             PM-|
|  Q.                      S   S   Q.                       S   S
|-----------------------------------------------------------------|
|-----------------------------------------------------------------|
|--5-------------------------------5------------------------------|
|--5-------------------------------5------------------------------|
|--3-------------------------------3------------------------------|
|--3-----------------------3---3---3------------------------3---3-|


   |----3-----|     |----3----|   |---3----|   |---3----|
   E    E     E     E     E   E   E    E   E   E    E   E
|---------------------------------5s===3p==0------------3--|
|----------------------------------------------------------|
|---------------------------------------------------5------|
|-14s==12s===14----12--------7----------------------------|
|-------------------------5--------------------3-----------|
|-12s==10s===12----10-------------------------------------|
|
|                PM----|        PM
|  E      E      S     S  E     S   S  E     S   S  E
|----------------------------------------------------------|
|----------------------------------------------------------|
|---------5---------------5------------5-------------------|
|---------5---------------5------------5------------5------|
|---------------------------------------------------5------|
|--3-------------3-----3--------3---3--------3---3---------|


  Gtr V
  |--3---|    |--3---|
  E   E  E    E  E   E    Q        +E      E
|-2---------------------------------------19-|
|-----5--4-----------------------------------|
|------------------------[4]b6r====(4)-------|
|-------------5--4---2-----------------------|
|--------------------------------------------|
|--------------------------------------------|
|
| Gtr I
|          H.                  E           E
|--------------------------------------------|
|-----------------------------------------15-|
|--------------------------------------------|
|--------------------------------------------|
|--------------------------------------------|
|--------------------------------------------|
|
| Gtr II
|                PM|                    PM|
| Q.             S S Q.                 S  S
|--------------------------------------------|
|--------------------------------------------|
|--------------------9-----------------------|
|-2------------------9-----------------------|
|-2------------------7-----------------------|
|-0--------------0-0-0------------------0--0-|


                                              ~~~~
   |----3-----|   |---3---|
   E   E      E   E   E   E   a     Q         E      +E
|-14------------------------------------------------------|
|-----15--------------------------------------------------|
|------------16--------------12s===14--------12-----(12)-|
|----------------17--16--14-------------------------------|
|----------------------------10s===12--------10-----(10)-|
|---------------------------------------------------------|
|
|  |----3-----|   |---3---|
|  E   E      E   E   E   E   Q              +Q
|---------------------------------------------------------|
|---------------------------------------------------------|
|-16--12---------------------[7]b9r==========(7)---------|
|------------14-------------------------------------------|
|----------------15--14--12-------------------------------|
|---------------------------------------------------------|
|
|                         PM                      PM
|  E  +S  E.              E   E        E   E      E
|---------------------------------------------------------|
|---------------------------------------------------------|
|---------------------------------------------------------|
|--6--(6)s4-------------------4h=======5---4--------------|
|--7--(7)s5-------------------5-------(5)--5--------------|
|-------------------------0-----------------------0-------|


                           ~~~
    E   E.         S  S S  Q.        +E
|-------------------------------------------|
|-------------------------------------------|
|-/11h=12---------16p11p9h11--------(11)---|
|-------------------------------------------|
|-------------------------------------------|
|-------------------------------------------|
|
|   E   Q             E    Q.        +E
|-------------------------------------------|
|-------------------------------------------|
|-------------------------------------------|
|-/11h=12------------11----9---------(9)---|
|-------------------------------------------|
|-------------------------------------------|
|
|   PM-----|
|   E   S  S E  E     H
|---------------3-----3---------------------|
|---------------3-----3---------------------|
|------------5--5-----4---------------------|
|------------5--------5---------------------|
|------------3--------3---------------------|
|---3---3--3-3------------------------------|


   PM---------------|
   |--3---|  |---3---|   |---3---|   |---3---|
   E   E  E  E   E   E   E   E   E   E   E   E
|---------------12------10----------14h=15h=17-||
|-10----------------12------12-----------------||
|-----11------------------------12-------------||
|---------9--9---------------------------------||
|----------------------------------------------||
|----------------------------------------------||
|
|                        W
|----------------------------------------------||
|----------------------------------------------||
|----------------------------------------------||
|----------------------------------------------||
|----------------------------------------------||
|----------------------------------------------||
|
|  H                     H
|----------------------------------------------||
|----------------------------------------------||
|----------------------------------------------||
|--5---------------------7---------------------||
|--5---------------------7---------------------||
|--3---------------------5---------------------||


  Gtr V
   E.      +S   E       Q.            +Q                         W
|-15------(15)p14b15---12------------(12)-------|---------------------------------|
|------------------------------------------------|---------------------------------|
|------------------------------------------------|---------------------------------|
|------------------------------------------------|---------------------------------|
|------------------------------------------------|---------------------------------|
|------------------------------------------------|---------------------------------|
|
| Gtr I
|  PM-------------------------------------------------------------------------------
|  S  S S   S   S    S  S  S S S S S   S   S S S   S S S S S S S S S S S S S S S S
|------------------------------------------------|---------------------------------|
|------------------------------------------------|---------------------------------|
|--5--5-4---4----------------2-2-2-2-------------|---------------------------------|
|---------------5----5--5--5-----------4---4-4-4-|---------5-5-----4-4-------------|
|------------------------------------------------|-0-0-0-0-----0-0---------5-5-----|
|------------------------------------------------|---------------------6-6-----6-6-|
|
| Gtr II
|  H                         H                     H               H
|------------------------------------------------|---------------------------------|
|------------------------------------------------|---------------------------------|
|--5---------------------------------------------|---------------------------------|
|--5-------------------------2-------------------|-7---------------8---------------|
|--3-------------------------2-------------------|-7---------------8---------------|
|----------------------------0-------------------|-5---------------6---------------|


                     W                                    W
||--------------------------------------|--------------------------------||
||о-------------------------------------|-------------------------------о||
||--------------------------------------|--------------------------------||
||--------------------------------------|--------------------------------||
||о-------------------------------------|-------------------------------о||
||--------------------------------------|--------------------------------||
|
|--------------------------------------------------|        PM----|
|    S S S S  S  S S S S S S  S S S S S    S  S  S  S  Q    S S S S  Q
||--------------------------------------|--------------------------------||
||о-------------------------------------|-------------------------------о||
||--------------------------------------|--------------7-----------------||
||---------------------7-7--------------|--------------7-------------7---||
||о------7-7-10-10---------7--7-----9-9-|--------------9-------------7--о||
||---7-7-----------7-7----------7-7-----|-10-10-10-10-10----9-9-9-9--9---||
|
|                  PM|                     PM------|        PM----|
|    E   Q         S S E   Q.              S  S  S  S  Q    S S S S  Q
||--------------------------------------|--------------------------------||
||о-------------------------------------|-------------------------------о||
||--------------------------------------|--------------------------------||
||---9-----------------9----------------|-------------12------------11---||
||о--9-----------------9----------------|--------------9-------------7--о||
||---7-------------7-7-7----------------|-10-10-10-10-10----9-9-9-9--9---||


  Gtr III
   Q.   Q  E  E   +E     E E E E E E E +E
|----------------------|--------------------||
|----------------------|--------------------||
|----------------------|---------0----------||
|-^7----7--------------|-----4-----4--------||
|-^5-------5-----------|---5---5-----5-(5)-||
|-^7----------7---(7)-|-3------------------||
|
| Gtr II
|  H.        +Q          W
|----------------------|--------------------||
|----------------------|--------------------||
|----------------------|--------------------||
|--9---------(9)------|-5------------------||
|----------------------|--------------------||
|--7---------(7)------|-3------------------||


  Gtr I
   PM--------------|
   S S  S S S  S S  S          H
|----------------------------------------|
|----------------------------------------|
|----------------------------------------|
|----------------------------------------|
|---------4-4--4-------------------------|
|--2-2--2--------5--5--------------------|
|
| Gtr VI
|  E    S E    E    E   E   a  Q     +S
|----------------------------------------|
|-------------12-----------10s12----(12)-|
|---------9---------9---9----------------|
|-10---10--------------------------------|
|----------------------------------------|
|----------------------------------------|
|
| Gtr II
|  E    S E    E    E   E   a  Q     +S
|-------------12-----------10s12----(12)-|
|---------9--------10--10----------------|
|-12---12--------------------------------|
|----------------------------------------|
|----------------------------------------|
|----------------------------------------|


   PM-----------------|
   S  S  S  S  S  S S S             H
|--------------------------------------------------|
|--------------------------------------------------|
|--------------------------------------------------|
|-----------4--4--4--------------------------------|
|--2--2--2----------5-5----------------------------|
|--------------------------------------------------|
|
|  |--3--|  |--3--|      |--3--|
|  S  S  S  S  S  Q      S  S  S  Q     S  E  +S
|----------10h12h14-----12p10s=9-10-----9----------|
|-10h12h14--------------------------------12-(12)s=|
|--------------------------------------------------|
|--------------------------------------------------|
|--------------------------------------------------|
|--------------------------------------------------|
|
|  |--3--|  |--3--|      |--3--|
|  S  S  S  S  S  Q      S  S  S  Q     S  E  +S
|----------15-17-19-----17p15s14-15----14----------|
|-15-17-19--------------------------------17-(17)s=|
|--------------------------------------------------|
|--------------------------------------------------|
|--------------------------------------------------|
|--------------------------------------------------|


   PM-------------|
   S  S S S S S S S          H
|---------------------------------------|
|---------------------------------------|
|---------------------------------------|
|---------------------------------------|
|---------4-4-4-------------------------|
|--2--2-2-------5-5---------------------|
|
|  ~~~
|  Q.                E   E.     E.    E
|-----------------------12-----14-------|
|-14----------------10------------------|
|------------------------------------11-|
|---------------------------------------|
|---------------------------------------|
|---------------------------------------|
|
|  ~~~
|  Q.                E   E.     E.    E
|-----------------------17-----19-------|
|-19----------------15------------------|
|------------------------------------16-|
|---------------------------------------|
|---------------------------------------|
|---------------------------------------|


   PM-----------------|
   S  S S  S  S S  S  S        H
|----------------------------------------|
|----------------------------------------|
|----------------------------------------|
|----------4--4-4------------------------|
|--2--2-2----------5--5------------------|
|----------------------------------------|
|
|  E.      E.      E.      E.     E   E
|---------10------12---------------------|
|-14-----------------------------12s=14--|
|--------------------------9-------------|
|----------------------------------------|
|----------------------------------------|
|----------------------------------------|
|
|  E.      E.      E.      E.     E   E
|---------15------17---------------------|
|-19-----------------------------17s=19--|
|-------------------------14-------------|
|----------------------------------------|
|----------------------------------------|
|----------------------------------------|


  Q=260
 10/8
   PM---------------------------------------------------------------------------------------------
   E        E   E   E   E   E   E   E    E    E       E    E   E   E   E   E   E   E     E    E
|------------------------------------------------|-----------------------------------------------|
|------------------------------------------------|-----------------------------------------------|
|------------------------------------------------|-----------------------------------------------|
|----------------------------------------2----2--|-------------6---6---------------4-----4----4--|
|-------------------4---4---4--------------------|----4----4-----------2---2---2-----------------|
|--2--------2---2---------------5---5------------|-----------------------------------------------|
|
|  |---3----|
|  E     E  E   E   E   E   E   E   E    E    E       E    E   E   E   E   E.  S   E.    S    E
|-10h===12p10------10------------------------12s=|===10-------10--12--14--15------14-------------|
|--------------14------14--15--14--12---14-------|--------12---------------------------------12--|
|------------------------------------------------|-----------------------------------------------|
|------------------------------------------------|-----------------------------------------------|
|------------------------------------------------|-----------------------------------------------|
|------------------------------------------------|-----------------------------------------------|
|
|  W                                    +Q           +W                                 +Q
|-14b15--------------------------------(14)------|--(14)-------------------------------(14)------|
|-14b15--------------------------------(14)------|--(14)-------------------------------(14)------|
|------------------------------------------------|-----------------------------------------------|
|------------------------------------------------|-----------------------------------------------|
|------------------------------------------------|-----------------------------------------------|
|------------------------------------------------|-----------------------------------------------|


 -------------------------------------------------|
       E   E    E     E   E  E     E    E    E     E
|----------------------------------------------------|
|----------------------------------------------------|
|----------------------------------------------------|
|----------------------------------5----4------------|
|------5---5----5-----2---4--5---------------5-----4-|
|----------------------------------------------------|
|
|                            |--3--|  |-3--| |--3--|
|  +S    S    E    E.   S    E  E  E  E E  E E  E  E
|------------12--------------9h10h12p10p9----9-------|
|-(12)------------10----------------------12---12p10-|
|----------------------------------------------------|
|----------------------------------------------------|
|----------------------------------------------------|
|----------------------------------------------------|
|
|               W                     Q
|----------------------------------------------------|
|----------------------------------------------------|
|----------------------------------------------------|
|----------------------------------------------------|
|----------------------------------------------------|
|----------------------------------------------------|


  Gtr I
  PM------------------------------------------------------
  E      E  E  E        E          E    E   E  E  E
|--------------------------------------------------------|
|--------------------------------------------------------|
|--------------------------------------------------------|
|----------------------------------------------2--2------|
|--------------4--------4----------4---------------------|
|-2------2--2---------------------------5---5------------|
|
| Gtr VI
| 
Аккорд EАккорд AАккорд DАккорд GАккорд BАккорд H