Портал для гитаристов
gtars.ru

Cypress Hill — Audio X

 This sound is played during almost all song

  Am
|------0---------0--0---|
|------1---------1----1-|
|------2-------2-2------|
|---2--------2----------|
|-0--------0------------|
------------|

This part is like first, but it contain some bridge in the end

  Am
|------0---------0--0---0h1-|
|------1---------1----1-----|
|------2-------2-2----------|
|---2--------2--------------|
|-0--------0----------------|
----------------| 
Аккорд Am