Портал для гитаристов
gtars.ru

Eagle Eye Cherry — Save Tonight

   BTAB: Save Tonight 
Artist: Eagle Eye Cherry
 Album: Unknown
Author: Rattman (jratt0@hotmail.com)

**Padrino's Bass Tab Exclusive!**

If you know this songs real name let me know.

Verse:
G---------------------------------
D---------------------------------
A-0-0-0-0---------3-3-3-3---------
E---------1-1-1-1---------3-3-3-3-

Chorus:
G-------------------------
D-------------------------
A-0-0-0-0---------3-3-5-3-
E---------1-1-1-1---------

Taken from Padrino's Bass Tab Archive: http://members.xoom.com/jszalma/

 

Eagle Eye Cherry — Save Tonight

    Bb F#m C#m G#
1:-1--2----6--4--
2:-3--2----4--4--
3:-3--2----4--5--
4:-1--4----6--6--
5:-1--4----6--6--
6:-1--2----6--4--


Go on and close the curtains
´cause all we need is candlelight
You and me and the bottle of wine
and hold you tonight

Well, we know I´m going away
And how I wish, I wish it weren´t so
so take this wine and drink with me
let´s delay our misery...

Save tonight
fight the break at dawn
Come tomorrow
Tomorrow I´ll be gone

There´s a log on the fire
and it burns like me for you
Tomorrow comes with one desire..
to take me away

It ain´t easy to say goodbye
darling please don´t start to cry
´cause girl you know I´ve got to go
and Lord I wish it wasn´t so

Tomorrow comes to take me away
I wish that I, that I could stay
but girl you know I´ve got to go, oh
and Lord I wish it wasn´t so 
Аккорд BbАккорд F#mАккорд C#mАккорд G#

Eagle Eye Cherry — Save tonight

 Проигрыш: Am F* G C

F* - не знал как написать, 
простой открытый аккорд F
кто не знает -

1|---|---|---|-
2|-*-|---|---|-
3|---|-*-|---|-
4|---|---|-*-|-
5|---|---|---|-
6|---|---|---|-


 Am         F*    G       C 
Go on and close the curtains
Ђcause all we need is candlelight
You and me and the bottle of wine
and hold you tonight

Well, we know IЂm going away
And how I wish, I wish it werenЂt so
so take this wine and drink with me
letЂs delay our misery...
 Am     F*
Save tonight
  G                 C
fight the break at dawn
Come tomorrow
Tomorrow IЂll be gone

ThereЂs a log on the fire
and it burns like me for you
Tomorrow comes with one desire..
to take me away

It ainЂt easy to say goodbye
darling please donЂt start to cry
Ђcause girl you know IЂve got to go
and Lord I wish it wasnЂt so

Tomorrow comes to take me away
I wish that I, that I could stay
but girl you know IЂve got to go, oh
and Lord I wish it wasnЂt so 
Аккорд AmАккорд GАккорд CАккорд F

Eagle Eye Cherry — Save Tonight

 Eagle Eye Cherry
Save Tonight

there's alot of undetailed tabs for save tonight and seeing how catchy
the solo's are in the song i decided to put together a detailed 
version.Im pretty sure what i figured out is quite correct and if u 
have any comments etc please feel free to mail me at 
khoo33@hotmail.com

standard tuning

intro and verse
  pm..   pm..               pm..
e|-0-0-0--1-1-1---|-----0-0--3-3-3-|----------------|----------------|
B|-1-1-1--1-1-1---|-----1-1--3-3-3-|----------------|----------------|
G|-2-2-2--2-2-2---|-0---0-0--0-0-0-|----------------|----------------|
D|-2-2-2--3-3-3---|-0h2-2-2--0-0-0-|----------------|----------------|
A|-0-0-0--3-3-3---|-3---3-3--2-2-2-|----------------|----------------|
E|-0-0-0--x-x-x---|-x---x-x--3-3-3-|----------------|----------------|

chorus
e|-0-0-0--1-1-1---|-----0-0--3-3-3-|----------------|----------------| 
B|-1-1-1--1-1-1---|-----1-1--3-3-3-|----------------|----------------|
G|-2-2-2--2-2-2---|-0---0-0--0-0-0-|----------------|----------------|
D|-2-2-2--3-3-3---|-0h2-2-2--0-0-0-|----------------|----------------|
A|-0-0-0--3-3-3---|-3---3-3--2-2-2-|----------------|----------------|
E|-0-0-0--x-x-x---|-x---x-x--3-3-3-|----------------|----------------|
 |                                                                   |
e|----------------|----------------|----------------|----------------|
B|-----1-------1--|-----1-------3--|----------------|----------------|
G|-------2-------2|-------0-------0|----------------|----------------|
D|---2-------3----|---2-------0----|----------------|----------------|
A|-0-------3------|-3-------2------|----------------|----------------|
E|----------------|----------------|----------------|----------------|

solo 1
e|----------------|----------------|----------------|----------------|
B|----------------|-------/10-8----|---/13----13----|--13--13/15--15-|
G|9/5--5-5-5--5/7-|--9/5-----------|----------------|----------------|
D|----------------|----------------|----------------|----------------|
A|----------------|----------------|----------------|----------------|
E|----------------|----------------|----------------|----------------|

e|-15-15----------|15/17/15--------|----------------|----------------|
B|----------------|----------------|----------------|----------------|
G|----------------|----------------|----------------|----------------|
D|----------------|----------------|----------------|----------------|
A|----------------|----------------|----------------|----------------|
E|----------------|----------------|----------------|----------------|

solo 2
e|----------------|----------------|----------------|----------------|
B|----------------|--------/10-8---|----------------|-------/10-8----|
G|-9/5--5-5-5--5/7|--9/5-----------|9/5--5-5-5--5/7-|--9/5-----------|
D|----------------|----------------|----------------|----------------|
A|----------------|----------------|----------------|----------------|
E|----------------|----------------|----------------|----------------|

e|----------------|----------------|-15-15-15^(17)15|----------------|
B|/13-13----------|--13h15-15/17-15|----------------|-15^(17)-13-----|
G|----------------|----------------|----------------|----------------|
D|----------------|----------------|----------------|----------------|
A|----------------|----------------|----------------|----------------|
E|----------------|----------------|----------------|----------------|

e|----------------|----------------|-15-15-15/17-17-|-12-12-12h13p12-|
B|-13h15-15-15----|-15^-15^-15^-15^|----------------|----------------|
G|----------------|----------------|----------------|----------------|
D|----------------|----------------|----------------|----------------|
A|----------------|----------------|----------------|----------------|
E|----------------|----------------|----------------|----------------|

e|----------------|----------------|----------------|-------15---15--|
B|-15-13----------|----------------|-----------13-15|-13-15^--15^----|
G|-------14-12----|-12h14-14--14-12|-12h14-14-------|----------------|
D|----------------|----------------|----------------|----------------|
A|----------------|----------------|----------------|----------------|
E|----------------|----------------|----------------|----------------|

e|----15----------|----------------|----------------|----------------|
B|-15^--15^-13----|----------------|----------------|----------------|
G|-------------14-|----------------|----------------|----------------|
D|----------------|----------------|----------------|----------------|
A|----------------|----------------|----------------|----------------|
E|----------------|----------------|----------------|----------------|

the final solo is an improvisation of the first one so it will not 
sound exactly like the original cd at the end.I modified it a 
little at the so u could end the song instead of fading out.

this is a work of khoo
ps:if you know any good vocalist from malaysia please inform me





 

Eagle Eye Cherry — Save Tonight

 Eagle Eye Cherry
Save Tonight

there's alot of undetailed tabs for save tonight and seeing how catchy
the solo's are in the song i decided to put together a detailed 
version.Im pretty sure what i figured out is quite correct and if u 
have any comments etc please feel free to mail me at 
khoo33@hotmail.com

standard tuning

intro and verse
  pm..   pm..               pm..
e|-0-0-0--1-1-1---|-----0-0--3-3-3-|----------------|----------------|
B|-1-1-1--1-1-1---|-----1-1--3-3-3-|----------------|----------------|
G|-2-2-2--2-2-2---|-0---0-0--0-0-0-|----------------|----------------|
D|-2-2-2--3-3-3---|-0h2-2-2--0-0-0-|----------------|----------------|
A|-0-0-0--3-3-3---|-3---3-3--2-2-2-|----------------|----------------|
E|-0-0-0--x-x-x---|-x---x-x--3-3-3-|----------------|----------------|

chorus
e|-0-0-0--1-1-1---|-----0-0--3-3-3-|----------------|----------------| 
B|-1-1-1--1-1-1---|-----1-1--3-3-3-|----------------|----------------|
G|-2-2-2--2-2-2---|-0---0-0--0-0-0-|----------------|----------------|
D|-2-2-2--3-3-3---|-0h2-2-2--0-0-0-|----------------|----------------|
A|-0-0-0--3-3-3---|-3---3-3--2-2-2-|----------------|----------------|
E|-0-0-0--x-x-x---|-x---x-x--3-3-3-|----------------|----------------|
 |                                                                   |
e|----------------|----------------|----------------|----------------|
B|-----1-------1--|-----1-------3--|----------------|----------------|
G|-------2-------2|-------0-------0|----------------|----------------|
D|---2-------3----|---2-------0----|----------------|----------------|
A|-0-------3------|-3-------2------|----------------|----------------|
E|----------------|----------------|----------------|----------------|

solo 1
e|----------------|----------------|----------------|----------------|
B|----------------|-------/10-8----|---/13----13----|--13--13/15--15-|
G|9/5--5-5-5--5/7-|--9/5-----------|----------------|----------------|
D|----------------|----------------|----------------|----------------|
A|----------------|----------------|----------------|----------------|
E|----------------|----------------|----------------|----------------|

e|-15-15----------|15/17/15--------|----------------|----------------|
B|----------------|----------------|----------------|----------------|
G|----------------|----------------|----------------|----------------|
D|----------------|----------------|----------------|----------------|
A|----------------|----------------|----------------|----------------|
E|----------------|----------------|----------------|----------------|

solo 2
e|----------------|----------------|----------------|----------------|
B|----------------|--------/10-8---|----------------|-------/10-8----|
G|-9/5--5-5-5--5/7|--9/5-----------|9/5--5-5-5--5/7-|--9/5-----------|
D|----------------|----------------|----------------|----------------|
A|----------------|----------------|----------------|----------------|
E|----------------|----------------|----------------|----------------|

e|----------------|----------------|-15-15-15^(17)15|----------------|
B|/13-13----------|--13h15-15/17-15|----------------|-15^(17)-13-----|
G|----------------|----------------|----------------|----------------|
D|----------------|----------------|----------------|----------------|
A|----------------|----------------|----------------|----------------|
E|----------------|----------------|----------------|----------------|

e|----------------|----------------|-15-15-15/17-17-|-12-12-12h13p12-|
B|-13h15-15-15----|-15^-15^-15^-15^|----------------|----------------|
G|----------------|----------------|----------------|----------------|
D|----------------|----------------|----------------|----------------|
A|----------------|----------------|----------------|----------------|
E|----------------|----------------|----------------|----------------|

e|----------------|----------------|----------------|-------15---15--|
B|-15-13----------|----------------|-----------13-15|-13-15^--15^----|
G|-------14-12----|-12h14-14--14-12|-12h14-14-------|----------------|
D|----------------|----------------|----------------|----------------|
A|----------------|----------------|----------------|----------------|
E|----------------|----------------|----------------|----------------|

e|----15----------|----------------|----------------|----------------|
B|-15^--15^-13----|----------------|----------------|----------------|
G|-------------14-|----------------|----------------|----------------|
D|----------------|----------------|----------------|----------------|
A|----------------|----------------|----------------|----------------|
E|----------------|----------------|----------------|----------------|

the final solo is an improvisation of the first one so it will not 
sound exactly like the original cd at the end.I modified it a 
little at the so u could end the song instead of fading out.

this is a work of khoo
ps:if you know any good vocalist from malaysia please inform me

 

Eagle Eye Cherry — Save Tonight

 SAVE TONIGHT
EAGLE EYE CHERRY

FROM:Isaac Tseng 

capo on first fret

INTRO AM F C G

          AM    F    C      G               AM  F    C     G
GO ON AND CLOSE THA CURTAINS CAUSE ALL WE NEED IS CANDLELIGHT
        AM F      C              G
YOU AND ME  AND A BOTTLE OF WINE
              AM          F C   G
GONNA TO HOLD YOU TONIGHT AYEAH
        AM  F   C       G             AM  F           C      G
WELL WE KNOW IM GOING AWAY AN HOW I WISH I WISH IT WERENT SO
             AM  F    C          G
SO TAKE THIS WINE AN DRINK WITH ME
AM              F       C G
LET’S DELAY OUR MISERY
     
     AM     F    C                   G   
SAVE TONIGHT AND FIGHT THE BRAKE OF DAWN
     AM     F C                 G
COME TOMORROW TOMORROW I’LL BE GONE

     AM      F    C                   G   
SAVE TONIGHT AND FIGHT THE BRAKE OF DAWN
     AM     F C                 G
COME TOMORROW TOMORROW I’LL BE GONE

          AM F        C  G         AM   F     C       G
THERE’S A LOG ON THE FIRE AND IT BURNS LIKE ME FOR YOU
         AM   F          C    G
TOMORROW COMES WITH ONE DESIRE
   AM      F    C        G
TO TAKE ME AWAY I’TS TRUE
         AM  F   C       G             AM    F       C        G
IT AIN’T EASY TO SAY GOODBYE DARLING PLEASE DON’T START TO CRY
      AM               F          C G
CAUSE GIRL YOU KNOW I GOT TO GO OH
   AM             F          C G
AN LORD I WISH IT WASN’T SO
    
     AM     F    C                   G   
SAVE TONIGHT AND FIGHT THE BRAKE OF DAWN
     AM     F C                 G
COME TOMORROW TOMORROW I’LL BE GONE

     AM      F    C                   G   
SAVE TONIGHT AND FIGHT THE BRAKE OF DAWN
     AM     F C                 G
COME TOMORROW TOMORROW I’LL BE GONE

  AM     F        C         G
TOMORROW COMES TO TAKE ME AWAY
AM          F      C         G
I WISH THAT I THAT I COULD STAY
AM              F             C G
GIRL YOU KNOW I GOT TO GO OH
   AM             F          C G
AN LORD I WISH IT WASN’T SO
  
     AM     F    C                   G   
SAVE TONIGHT AND FIGHT THE BRAKE OF DAWN
     AM     F C                 G
COME TOMORROW TOMORROW I’LL BE GONE

     AM      F    C                   G   
SAVE TONIGHT AND FIGHT THE BRAKE OF DAWN
     AM     F C                 G
COME TOMORROW TOMORROW I’LL BE GONE

     AM     F    C                   G   
SAVE TONIGHT AND FIGHT THE BRAKE OF DAWN
     AM     F C                 G
COME TOMORROW TOMORROW I’LL BE GONE

     AM      F    C                   G   
SAVE TONIGHT AND FIGHT THE BRAKE OF DAWN
     AM     F C                 G
COME TOMORROW TOMORROW I’LL BE GONE

     AM     F    C                   G   
SAVE TONIGHT AND FIGHT THE BRAKE OF DAWN
     AM     F C                 G
COME TOMORROW TOMORROW I’LL BE GONE

     AM      F    C                   G   
SAVE TONIGHT AND FIGHT THE BRAKE OF DAWN
     AM     F C                 G
COME TOMORROW TOMORROW I’LL BE GONE

AM F  C               G
    TOMORROW I'LL BE GONE
AM F  C               G
    TOMORROW I'LL BE GONE
AM F  C               G
    TOMORROW I'LL BE GONE
AM F  C               G
    TOMORROW I'LL BE GONE

     AM     F C G
SAVE TONIGHT
     AM     F C G
SAVE TONIGHT
     AM     F C G
SAVE TONIGHT
     AM     F C G
SAVE TONIGHT
 
 
Аккорд FАккорд CАккорд GАккорд AАккорд BE

Eagle Eye Cherry — Save Tonight

 Hey! mY name is Nicolaj Leth and I'm from Denmark! This is my 2nd chord version I do!
The other one is silverflame with dizzy mizz lizzy! Figured out the chords myself... Hope you like it!


INTRO (it's based on the same chords the HOLE SONG THROUGH!!!)

F#  D  A   E x4

Verse 1:

F#  D  A   E
 GO ON AND CLOSE THA CURTAINS 
F#   D   A  E
CAUSE ALL WE NEED IS CANDLELIGHT
F#   D   A   E
YOU AND ME AND A BOOTLE OF WINE
F#    D   A   E
GONNA TO HOLD YOU TONIGHT AYEAH
F# D   A    E
WELL WE KNOW IM GOING AWAY 
F# D   A    E
AND HOW I WISH I WISH IT WERENT SO
F# D   A    E
SO TAKE THIS WINE AND DRINK WITH ME
F# D   A    E
LETS DELAY OUR MISERY

CHORUS:
F#  D  A  E (THE HOLE CHORUS THROUGH!

SAVE TONIGHT
AND FIGHT THE BRAKE OF DAWN
COME TOMMOROW
TOMMOROW I'LL BE GONE

SAVE TONIGHT
AND FIGHT THE BRAKE OF DAWN
COME TOMMOROW
TOMMOROW I'LL BE GONE

VERSE 2:
(SAME AS FIRST!)
F#  D  A  E
THERES A LOG ON FIRE
TOMMOROW COMES WITH ONE DESIRE
TO ME AWAY ITS TRUE
IT AINT EASY TO SAY GOODBYE
DARLING PLEASE, JUST STOP TO CRY
CAUSE GIRL YOU KNOW I GOT TO GO AHA
AND LORD I WISH IT WASNT SO

CHORUS:
F#   D   A   E

SAVE TONIGHT
AND FIGHT THE BRAKE OF DAWN
COME TOMMOROW
TOMMOROW I'LL BE GONE

SAVE TONIGHT
AND FIGHT THE BRAKE OF DAWN
COME TOMMOROW
TOMMOROW I'LL BE GONE

BRIDGE:
F#  D   A   E
TOMMOROW COMES TO ME AWAY
I WISH THAT I, THAT I COULD STAY
BUT GIRL YOU KNOW I GOT TO GO!
AND LORD I WISH I WASNT SO!

CHORUS X4 (OR SOMETHING LIKE THAT)


AND THEN ITS JUST DRIVING OUT...
HOPE YOU ENJOYT IT, MY FELLOW GUITARISTS!

IF YOU HAVE SOME QUESTIONS, THEN MAIL ME AT:
NICOLAJ_LETH292@HOTMAIL.COM

,NICOLAJ... 
Аккорд F#Аккорд DАккорд AАккорд EАккорд BEАккорд AHAАккорд HAVE