Портал для гитаристов
gtars.ru

Eagles — Hotel California

 Eagles, Hotel california

Something like this:

Intro
--------------------------0----|--------------------------2--------------------------------
---0-----------0---------------|-----------0--------0------------0-------------------------
---0-----0-------------0-------|--------0--2-----2-----------2-----------------------------
---2--------2------2-----------|--------------1--------------------1-----------------------
---2--2------------------------|-----------------------2-----------------------------------
---0---------------------------|-----------------------------------------------------------




-------5-----0--------------------------0-----------------0---|----0-----0-----------0----
----------3-----3--------3--------0---------------0-----------|-------------1-------------
----2-----------------2--------2-----------0---------0--0-----|-------0-----------0-------
-0-----------------0--------------------------2---------------|----------------2----------
----------------------------0--------4------------------------|-3-------------------------
--------------------------------------------------------------|---------------------------


-------------------------------3-----------------------------------0-----------------0------
-----1-------------------0-----------0------------0---------0---------------1-----1---------
----------/---0------0----0------------------0---------------=-------0---------------------
---------0--2------0--------------0----------------------0---------------2-----2------------
-3---------------------------------------2----------------------0---------------------------
------------------------------------------------------3-------------------------------------


------------------------------------2-------------------3-----------0--0------------------
------------0--------------0-------------------0-----------0--0-----------0-----0---------
---0-----------------2--2--------2-------------0--0--0-----------0-----------0--2---------
2--------2--------1-----------1------------=---2------------------------------------------
---------------2-------------------------------2------------------------------------------
------0----------------------------------------0------------------------------------------



-------------2-----------
-------0-----------0-----
----2-----------2--------
-1--------------------1--
----------2--------------
-------------------------


-------5-----0--------------------------0-----------------0---|----0-----0-----------0----
----------3-----3--------3--------0---------------0-----------|-------------1-------------
----2-----------------2--------2-----------0---------0--0-----|-------0-----------0-------
-0-----------------0--------------------------2---------------|----------------2----------
----------------------------0--------4------------------------|-3-------------------------
--------------------------------------------------------------|---------------------------



-------------------------------3-----------------------------------0-----------------0------
-----1-------------------0-----------0------------0---------0---------------1-----1---------
----------/---0------0----0------------------0---------------=-------0---------------------
---------0--2------0--------------0----------------------0---------------2-----2------------
-3---------------------------------------2----------------------0---------------------------
------------------------------------------------------3-------------------------------------



------------------------------------2---
------------0--------------0------------
---0-----------------2--2--------2------
2--------2--------1-----------1---------
---------------2------------------------
------0---------------------------------


Verso 1

--------3-----------0--0-------------------
0-----------0--0-----------0-----0---------
0--0--0-----------0-----------0--2---------
2------------------------------------------
2------------------------------------------
0------------------------------------------


-------------2-----------
-------0-----------0-----
----2-----------2--------
-1--------------------1--
----------2--------------
-------------------------


-------5-----0--------------------------0-----------------0---|----0-----0-----------0----
----------3-----3--------3--------0---------------0-----------|-------------1-------------
----2-----------------2--------2-----------0---------0--0-----|-------0-----------0-------
-0-----------------0--------------------------2---------------|----------------2----------
----------------------------0--------4------------------------|-3-------------------------
--------------------------------------------------------------|---------------------------



-------------------------------3-----------------------------------0-----------------0------
-----1-------------------0-----------0------------0---------0---------------1-----1---------
----------/---0------0----0------------------0---------------=-------0---------------------
---------0--2------0--------------0----------------------0---------------2-----2------------
-3---------------------------------------2----------------------0---------------------------
------------------------------------------------------3-------------------------------------



------------------------------------2---
------------0--------------0------------
---0-----------------2--2--------2------
2--------2--------1-----------1---------
---------------2------------------------
------0---------------------------------

Chord

 Bm                        F#
 On a dark desert highway, cool wind in my hair
 A                     E
 Warm smell of colitas rising up through the air
 G                         D
 Up ahead in the distance, I saw a shimmering light
 Em
 My head grew heavy and my sight grew dim
 F#
 I had to stop for the night

 Bm                               F#
 There she stood in the doorway;  I heard the mission bell
 A                                          E
 And I was thinking to myself this could be heaven or this could be hell
 G                        D
 Then she lit up a candle, and she showed me the way
 Em                                   F#
 There were voices down the corridor, I thought I heard them say

 
 Chorus :
 
 G                        D
 Welcome to the Hotel California.
        Em                   Bm7
 Such a lovely place, such a lovely face
 G                               D
 Plenty of room at the Hotel California
 Em                                      F#
 Any time of year (any time of year) you can find it here



Solo



 Bm        	   ~~	     1/4  F#7                      A	   1/2           1/2
|-------------------------------|------------------------|------------------------------------|
|--(15)--10-12-------------7----|------------------------|------7-------------7---------------|
|--------------11s9~~--7h9---7^-|------------------------|--7h9---7^-------7h9---7^-----------|
|-------------------------------|-8---9h12p9--7--(8)----|----------9p8-9------------9p7-9p7--|
|-------------------------------|------------------------|------------------------------------|
|-------------------------------|------------------------|------------------------------------|

 E					      G					 D
|--------10--------------------7---10^(12)-|--10-(12)10p7---------10----------|--------10--------------|
|10^(12)----(12)10p7-10-8^(9)----7---------|--------------10^(12)----(12)10-8-|------------------------|
|------------------------------------------|----------------------------------|-9^(11)----(11)9p7-7p6-7|
|------------------------------------------|----------------------------------|------------------------|
|------------------------------------------|----------------------------------|------------------------|
|------------------------------------------|----------------------------------|------------------------|

 Em						       F#7				      ~~
|----------------------------------------------------|----------------------7--------------------|
|------7^(8)-7^(8)(7)-------7^(8)-7^(8)-7^(8)(7)-----|--------7-10--------7-7--------------------|
|--7h9----------------9p7h9----------------------9p7-|-9^(11)------9^(11)-----9^(11)9p7-9^(11)~~-|
|----------------------------------------------------|-------------------------------------------|
|----------------------------------------------------|-------------------------------------------|
|----------------------------------------------------|-------------------------------------------|

 Second solo part
 Bm								     F#7    ~~~
|-----------------------7----------7--7--------7--7----------------|-------------|
|--------7--10--------7-7--------7-7--7--------7--7----------------|-------------|
|-9^(11)-------9^(11)-----9^(11)--------9^(11)------9^(11)-9p7-9-7-|--9^(11)~~~--|
|------------------------------------------------------------------|-------------|
|------------------------------------------------------------------|-------------|
|------------------------------------------------------------------|-------------|

 A		      1/4			 E9		    ~~
|-------------------------------------7--------|-------10------------------|
|-----------------------------10^(12)-----10-7-|-10s12----12p11-10-9~~/----|
|----11^(14)(11)-9-11-7^-----------------------|------------------------14-|
|---x---------------------9-0------------------|---------------------------|
|--x-------------------------------------------|---------------------------|
|-x--------------------------------------------|---------------------------|

 G							  D				       ~~
|--------------------12------------17-----------------|---------15-16-17-17^(19)------------------------|
|--------12--15^(17)----15-17^(19)----(19)17p15-17-15-|-17^(19)-------------------(19)(17)-15~~-17-17p15|
|^(16)------------------------------------------------|-------------------------------------------------|
|-----------------------------------------------------|-------------------------------------------------|
|-----------------------------------------------------|-------------------------------------------------|
|-----------------------------------------------------|-------------------------------------------------|

 Em  			       ~~		  F#7
|-----------17--17------------------------------|-----------17--17------------------------------|
|--17^(19)---------(19)(18)(19)~~--(19)(17)--15-|--17^(19)---------(19)(18)(19)~~--(19)(17)--15-|
|-----------------------------------------------|-----------------------------------------------|
|-----------------------------------------------|-----------------------------------------------|
|-----------------------------------------------|-----------------------------------------------|
|-----------------------------------------------|-----------------------------------------------|


 Third solo part
 Bm						    F#7
|--17^(19)-------------10---------10--------------|-----------------|
|--------------12^(15)----12^(15)-----------------|--11~~~~~~~~~~~~-|
|-------------------------------------11s9p7------|-----------------|
|--------------------------------------------9--8-|-----------------|
|-------------------------------------------------|-----------------|
|-------------------------------------------------|-----------------|

 A                                                           1/4  E9		    ~~
|-----12^(14)-(13)(13)(13)(13)(13)(13)-12-12-12-12p10----12-10^-|----------------------------------------|
|---x-------------------------------------------------12--------|--12~~--10---------------10~~----------|
|--x------------------------------------------------------------|-----------11s9--7--9s11---------9^(11)-|
|---------------------------------------------------------------|----------------------------------------|
|---------------------------------------------------------------|----------------------------------------|
|---------------------------------------------------------------|----------------------------------------|

 G					 D	 	   ~~~
|--10----9---7-------------------------|---14--12-10-----------------------|
|-----10---8---7-10---8----------------|-----------------------------------|
|-------------------7-----7------------|-7-----------12^(14)(12)-11~~~--11-|
|-----------------------9---7s5p4-5s7--|-----------------------------------|
|--------------------------------------|-----------------------------------|
|--------------------------------------|-----------------------------------|

 Em				  F#7
|-------------------------------|------------9------10------12-|
|------------------10------12---|---11-------------------------|
|--12------12-------------------|------------------------------|
|-------------------------------|------------------------------|
|-------------------------------|------------------------------|
|-------------------------------|------------------------------|

Outro Part (Play twice)
 Bm	                                    F#7 			A
|14p10---14p10---14p10---14p10---14p10---|-12p9---12p9---12p9-9s18~~|-12p9---12p9---12p9---12p9---12p9--|
|-----12------12------12------12------12-|-----11-----11------------|-----10-----10-----10-----10-----10|
|----------------------------------------|--------------------------|-----------------------------------|
|----------------------------------------|--------------------------|-----------------------------------|
|----------------------------------------|--------------------------|-----------------------------------|
|----------------------------------------|--------------------------|-----------------------------------|

 E9			  G				  D
|-10p7--10p7--10p7-7s16~~-|-10p7--10p7--10p7--10p7--10p7--|-10-----10-----10---10s14~~-|
|-----9-----9-------------|-----8-----8-----8-----8-----8-|---10-----10-----10---------|
|-------------------------|-------------------------------|-----11-----11--------------|
|-------------------------|-------------------------------|----------------------------|
|-------------------------|-------------------------------|----------------------------|
|-------------------------|-------------------------------|----------------------------|

 Em
|-7---7---7---7---7---|-9-----9----9---9s14~~-|
|--8---8---8---8---8--|--11----11---11--------|
|---9---9---9---9---9-|----11----11-----------|
|---------------------|-----------------------|
|---------------------|-----------------------|
|---------------------|-----------------------|

 B
|----------|
|----------|
|----------|
|-9-9-9-9--|
|-9-9-9-9--|
|-7-7-7-7--| 
Аккорд BmАккорд F#Аккорд AАккорд EАккорд GАккорд DАккорд EmАккорд Bm7Аккорд F#7Аккорд E9Аккорд B

Eagles — Hotel California

  Bm                        F#
 On a dark desert highway, cool wind in my hair
 A                     E
 Warm smell of colitas rising up through the air
 G                         D
 Up ahead in the distance, I saw a shimmering light
 Em
 My head grew heavy and my sight grew dim
 F#
 I had to stop for the night

 Bm                               F#
 There she stood in the doorway;  I heard the mission bell
 A                                          E
 And I was thinking to myself this could be heaven or this could be hell
 G                        D
 Then she lit up a candle, and she showed me the way
 Em                                   F#
 There were voices down the corridor, I thought I heard them say

 Chorus:
 G                        D
 Welcome to the Hotel California.
        F#                   Bm7
 Such a lovely place, such a lovely face
 G                               D
 Plenty of room at the Hotel California
 Em                                      F#
 Any time of year (any time of year) you can find it here 
Аккорд BmАккорд F#Аккорд AАккорд EАккорд GАккорд DАккорд EmАккорд Bm7

Eagles — Hotel California

 Hotel California
Eagles
Tabber: Craig (wisenheimer43@hotmail.com) requests welcome.

As an intermediate guitarist i had trouble reading and playing really complex
tabs, so here is and easier way but sounds great!!

Strum the chords once, then use finger style (various notes of that chord)
in the note parts to make it sound good. Experiment!!!!

Listen to the record for timing.

Chord sequence, intro and verses.

Bm, F#, A, E, G, D, Em, F#.

Chords Used.

Bm = 224432
f# = 244322
A = x02220
D = xx0232
G = 320003
Em = 022000

wisenheimer43@hotmail.com

All requests replied 
Аккорд F#Аккорд BmАккорд AАккорд DАккорд GАккорд Em

Eagles — Hotel California

 My mate gave me this tab. I think he copied it from somewhere cus it's a little too clean
to be created by him. But i thought i'd post it anyway. Any queries e-mail me on s0300735@newi.ac.uk

Hotel California Solo  

    (About 4:20)
 First Solo part 
 Bm        	   ~~	     1/4  F#7                      A	   1/2           1/2
|-------------------------------|------------------------|------------------------------------|
|--(15)--10-12-------------7----|------------------------|------7-------------7---------------|
|--------------11s9~~--7h9---7^-|------------------------|--7h9---7^-------7h9---7^-----------|
|-------------------------------|-8---9h12p9--7--(8)----|----------9p8-9------------9p7-9p7--|
|-------------------------------|------------------------|------------------------------------|
|-------------------------------|------------------------|------------------------------------|

 E					      G					 D
|--------10--------------------7---10^(12)-|--10-(12)10p7---------10----------|--------10--------------|
|10^(12)----(12)10p7-10-8^(9)----7---------|--------------10^(12)----(12)10-8-|------------------------|
|------------------------------------------|----------------------------------|-9^(11)----(11)9p7-7p6-7|
|------------------------------------------|----------------------------------|------------------------|
|------------------------------------------|----------------------------------|------------------------|
|------------------------------------------|----------------------------------|------------------------|

 Em						       F#7				      ~~
|----------------------------------------------------|----------------------7--------------------|
|------7^(8)-7^(8)(7)-------7^(8)-7^(8)-7^(8)(7)-----|--------7-10--------7-7--------------------|
|--7h9----------------9p7h9----------------------9p7-|-9^(11)------9^(11)-----9^(11)9p7-9^(11)~~-|
|----------------------------------------------------|-------------------------------------------|
|----------------------------------------------------|-------------------------------------------|
|----------------------------------------------------|-------------------------------------------|

 Second solo part
 Bm								     F#7    ~~~
|-----------------------7----------7--7--------7--7----------------|-------------|
|--------7--10--------7-7--------7-7--7--------7--7----------------|-------------|
|-9^(11)-------9^(11)-----9^(11)--------9^(11)------9^(11)-9p7-9-7-|--9^(11)~~~--|
|------------------------------------------------------------------|-------------|
|------------------------------------------------------------------|-------------|
|------------------------------------------------------------------|-------------|

 A		      1/4			 E9		    ~~
|-------------------------------------7--------|-------10------------------|
|-----------------------------10^(12)-----10-7-|-10s12----12p11-10-9~~/----|
|----11^(14)(11)-9-11-7^-----------------------|------------------------14-|
|---x---------------------9-0------------------|---------------------------|
|--x-------------------------------------------|---------------------------|
|-x--------------------------------------------|---------------------------|

 G							  D				       ~~
|--------------------12------------17-----------------|---------15-16-17-17^(19)------------------------|
|--------12--15^(17)----15-17^(19)----(19)17p15-17-15-|-17^(19)-------------------(19)(17)-15~~-17-17p15|
|^(16)------------------------------------------------|-------------------------------------------------|
|-----------------------------------------------------|-------------------------------------------------|
|-----------------------------------------------------|-------------------------------------------------|
|-----------------------------------------------------|-------------------------------------------------|

 Em  			       ~~		  F#7
|-----------17--17------------------------------|-----------17--17------------------------------|
|--17^(19)---------(19)(18)(19)~~--(19)(17)--15-|--17^(19)---------(19)(18)(19)~~--(19)(17)--15-|
|-----------------------------------------------|-----------------------------------------------|
|-----------------------------------------------|-----------------------------------------------|
|-----------------------------------------------|-----------------------------------------------|
|-----------------------------------------------|-----------------------------------------------|


 Third solo part
 Bm						    F#7
|--17^(19)-------------10---------10--------------|-----------------|
|--------------12^(15)----12^(15)-----------------|--11~~~~~~~~~~~~-|
|-------------------------------------11s9p7------|-----------------|
|--------------------------------------------9--8-|-----------------|
|-------------------------------------------------|-----------------|
|-------------------------------------------------|-----------------|

 A             Bend and gradually release		     1/4  E9			    ~~
|-----12^(14)-(13)(13)(13)(13)(13)(13)-12-12-12-12p10----12-10^-|----------------------------------------|
|---x-------------------------------------------------12--------|--12~~--10---------------10~~----------|
|--x------------------------------------------------------------|-----------11s9--7--9s11---------9^(11)-|
|---------------------------------------------------------------|----------------------------------------|
|---------------------------------------------------------------|----------------------------------------|
|---------------------------------------------------------------|----------------------------------------|

 G					 D			   ~~~
|--10----9---7-------------------------|---14--12-10-----------------------|
|-----10---8---7-10---8----------------|-----------------------------------|
|-------------------7-----7------------|-7-----------12^(14)(12)-11~~~--11-|
|-----------------------9---7s5p4-5s7--|-----------------------------------|
|--------------------------------------|-----------------------------------|
|--------------------------------------|-----------------------------------|

 Em				  F#7
|-------------------------------|------------9------10------12-|
|------------------10------12---|---11-------------------------|
|--12------12-------------------|------------------------------|
|-------------------------------|------------------------------|
|-------------------------------|------------------------------|
|-------------------------------|------------------------------|

Outro Part (Play twice)
 Bm	                                    F#7 			A
|14p10---14p10---14p10---14p10---14p10---|-12p9---12p9---12p9-9s18~~|-12p9---12p9---12p9---12p9---12p9--|
|-----12------12------12------12------12-|-----11-----11------------|-----10-----10-----10-----10-----10|
|----------------------------------------|--------------------------|-----------------------------------|
|----------------------------------------|--------------------------|-----------------------------------|
|----------------------------------------|--------------------------|-----------------------------------|
|----------------------------------------|--------------------------|-----------------------------------|

 E9			  G				  D
|-10p7--10p7--10p7-7s16~~-|-10p7--10p7--10p7--10p7--10p7--|-10-----10-----10---10s14~~-|
|-----9-----9-------------|-----8-----8-----8-----8-----8-|---10-----10-----10---------|
|-------------------------|-------------------------------|-----11-----11--------------|
|-------------------------|-------------------------------|----------------------------|
|-------------------------|-------------------------------|----------------------------|
|-------------------------|-------------------------------|----------------------------|

 Em
|-7---7---7---7---7---|-9-----9----9---9s14~~-|
|--8---8---8---8---8--|--11----11---11--------|
|---9---9---9---9---9-|----11----11-----------|
|---------------------|-----------------------| Repeat Outro part, then play:
|---------------------|-----------------------|
|---------------------|-----------------------|

 B
|----------|
|----------|
|----------|
|-9-9-9-9--|
|-9-9-9-9--|
|-7-7-7-7--|

 Keep it rockin!! Ant 
Аккорд BmАккорд F#7Аккорд AАккорд EАккорд GАккорд DАккорд EmАккорд E9Аккорд B

Eagles — Hotel California

 Ok, the chords are simple, they're tabbed out here at the start if you need
them.  The solo is split between two guitar in the original recording and I've
put where each guitar is involved and above is their tab.  Not much timing was
put on the tab either and you have to work out how far some of the bends go.
Some of the bends are written like '^' and some are written as 'br'.  ^ means you
just bend it up and don't bring it back down to the original note, br means bend
and release meaning that you do bring it back down.
This should be pretty much perfect as it was taken from Guitar Techniques Sept.
2002 so enjoy.

Chords
Bm:     x24432
F#7:    242322
A:      x02220
E7:     020100
G:      320003
D/F#:   2x0232
Em:     022000
F#7/C#: x42322


Verse Chords: Bm, F#7, A, E7, G, D/F#, Em, F#7/C# (basically a chord a line)

On a dark desert highway
Cool wind in my hair
Warm smell of colitas
Rising up through the air
Up ahead in the distance
I saw a shimmering light
My head grew heavy, and my sight grew dim
I had to stop for the night
There she stood in the doorway
I heard the mission bell
And I was thinking to myself
This could be Heaven or this could be Hell
Then she lit up a candle
And she showed me the way
There were voices down the corridor
I thought I heard them say

Chorus Chords: G, D/F#, F#7, Bm, G, D/F#, Em, F#7/C#

Welcome to the Hotel California
Such a lovely place
Such a lovely place (background)
Such a lovely face
Plenty of room at the Hotel California
Any time of year
Any time of year (background)
You can find it here
You can find it here

Verse Chords: Bm, F#7, A, E7, G, D/F#, Em, F#7/C# 

Her mind is Tiffany twisted
She's got the Mercedes bends
She's got a lot of pretty, pretty boys
That she calls friends
How they dance in the courtyard
Sweet summer sweat
Some dance to remember
Some dance to forget
So I called up the Captain
Please bring me my wine
He said
We haven't had that spirit here since 1969
And still those voices are calling from far away
Wake you up in the middle of the night
Just to hear them say

Chorus Chords: G, D/F#, F#7, Bm, G, D/F#, Em, F#7/C#

Welcome to the Hotel California
Such a lovely Place
Such a lovely Place (background)
Such a lovely face
They're livin' it up at the Hotel California
What a nice surprise
What a nice surprise (background)
Bring your alibies

Verse Chords: Bm, F#7, A, E7, G, D/F#, Em, F#7/C# 

Mirrors on the ceiling
Pink champagne on ice
And she said
We are all just prisoners here
Of our own device
And in the master's chambers
They gathered for the feast
They stab it with their steely knives
But they just can't kill the beast
Last thing I remember
I was running for the door
I had to find the passage back to the place I was before
Relax said the nightman
We are programed to recieve
You can check out any time you like
But you can never leave  

Solo:
|------------------------------------------------------------------------------
|------10h12-12^--10-12-------7-------------------7--------------7-------------
|-9/11------------------9-7h9---7----4h7p4----7h9---7--------7h9---7-----------
|---------------------------------8--------7^---------9/8-9----------9p7-9p7---
|------------------------------------------------------------------------------
|------------------------------------------------------------------------------
 guitar 1                                                                     

-----10---------------7----10^--10-10br-7-----10---------------10-------------
-10b----r10-7-10-8^-----7-----------------10b----r10-8-x-x--------------------
------------------------------------------------------------9^----9brp7-7/6---
------------------------------------------------------------------------------
------------------------------------------------------------------------------
------------------------------------------------------------------------------
                                                                              

---------------------------------------------------7----------|----------------
----x------7^-7br-------7^-7^-7br--------7-10----7------------|-----7-10----7--
-7--x--7h9--------9p7-9-----------9p7-9^------9^-----9brp7-9^-|--9^------9^----
----x---------------------------------------------------------|----------------
----x---------------------------------------------------------|----------------
--------------------------------------------------------------|----------------
                                                                 ^guitar 2              

-7----7------7-7-------------------------------------------7----------10------
--------7----7-7---------------------------------------10^---10-7-10^----12---
---9^-----9^-----9brp7-9-7-9^--/-------r11-9-11-7----7------------------------
---------------------------------------------------9--------------------------
------------------------------------------------------------------------------
------------------------------------------------------------------------------
                               ^gliss  ^(pre-bend to 14)                       

------------------------------------17------------------15-16-17-17/19--------
-11-10-9--/---------12-15-17-15-17b----r17-15-17-15-17^----------------17^----
----------------14^-----------------------------------------------------------
------------------------------------------------------------------------------
------------------------------------------------------------------------------
------------------------------------------------------------------------------
          ^gliss                                                              

|-------------------17--17--------------------------17-17----------------------
|-15-17--17p15--17^--------^17-17b--r17-15h17-17^---------^17-17^--17brp15-----
|------------------------------------------------------------------------------
|------------------------------------------------------------------------------
|------------------------------------------------------------------------------
|------------------------------------------------------------------------------
| guitar 1                                                                              
|
|------------------------------------------------------------------------------
|------------------------------------------------------------------14brp12-----
|------------------------------------------------------------------------------
|------------------------------------------------------------------------------
|------------------------------------------------------------------------------
|------------------------------------------------------------------------------
 guitar 2                                                                     

|-----------------10-----10----------------------------------------------------
|-------------13^----13^---------------11--------------------------------------
|-13^-----------------------11/------------------------------------------------
|--------------------------------9/8-------------------------------------------
|------------------------------------------------------------------------------
|------------------------------------------------------------------------------
| guitar 1                    ^gliss                                           
|
|------------------------------------------12^-14-14-14-14-14-13-13-13-13------
|--17^-------------------------------------------------------------------------
|------------------------------------------------------------------------------
|------------------------------------------------------------------------------
|------------------------------------------------------------------------------
|------------------------------------------------------------------------------
 guitar 2                                   ^gradual release, pick            

                                                                
|-------------------------------------------10----9----7-----------------------
|--------------------------------------10^-----10----8---7-10---8--------------
|-------------------------------------------------------------9-----7----------
|-----------------------------------------------------------------9---7--------
|-----------------------------------------------------------------------10-9---
|------------------------------------------------------------------------------
| guitar 1                                                                     
|
|-12p10----12-10----------------------------7----------------------------------
|-------12-------12-10-------------10----------7--10---7-----------------------
|----------------------11/9-7-911-----9^------------9---7-9----7--------------
|-------------------------------------------------------------9-----7----------
|-----------------------------------------------------------------9---9-7/5----
|------------------------------------------------------------------------------
 guitar 2


|----------14----12p10-------------------------------------------9--10---12----
|-------------------------------------------------10---12---11-----------------
|------7---------------12br-11---11----12-----12-------------------------------
|----7-------------------------------------------------------------------------
|-10---------------------------------------------------------------------------
|------------------------------------------------------------------------------
| guitar 1                 
|
|----------7--------------------------------------------------------7----9-----
|----------------10p7-----------------------------7----8----7----11------------
|----------------------9br--7----7-----9------9--------------------------------
|------7-----------------------------------------------------------------------
|-79--------------------------------------------------------------------------
|------------------------------------------------------------------------------
 guitar 2                                                                     
                                                    

|-14p10----14p10----14p10----14p10----14p10-----12p9----12p9----12p9-/18-------
|-------12-------12-------12-------12-------12-------11------11----------------
|------------------------------------------------------------------------------
|------------------------------------------------------------------------------
|------------------------------------------------------------------------------
|------------------------------------------------------------------------------
| guitar 1                                                                     
|
|-10p7-----10p7-----10p7-----10p7-----10p7------9p6-----9p6-----9p6-/14--------
|-------7--------7--------7--------7--------7--------7-------7-----------------
|------------------------------------------------------------------------------
|------------------------------------------------------------------------------
|------------------------------------------------------------------------------
|------------------------------------------------------------------------------
 guitar 2                                                                     

|-12p9----12p9----12p9----12p9----12p9-----10p7---10p7---10p7-/16--------------
|------10------10------10------10------10-------9------9-----------------------
|------------------------------------------------------------------------------
|------------------------------------------------------------------------------
|------------------------------------------------------------------------------
|------------------------------------------------------------------------------
| guitar 1                                                                     
|
|-9p5-----9p5-----9p5-----9p5-----9p5------7p4-----7p4-----7p4-/12-------------
|------5-------5-------5-------5-------5--------5-------5----------------------
|------------------------------------------------------------------------------
|------------------------------------------------------------------------------
|------------------------------------------------------------------------------
|------------------------------------------------------------------------------
 guitar 2                                                                     

|-10p7---10p7---10p7---10p7---10p7----10p5---10p5---10p5-/14-------------------
|------8------8------8------8------8-------7------7----------------------------
|------------------------------------------------------------------------------
|------------------------------------------------------------------------------
|------------------------------------------------------------------------------
|------------------------------------------------------------------------------
| guitar 1                                                                     
|
|-7p3----7p3----7p3----7p3----7p3-----5p2----5p2----5p2-/10--------------------
|------3------3------3------3------3-------3------3----------------------------
|------------------------------------------------------------------------------
|------------------------------------------------------------------------------
|------------------------------------------------------------------------------
|------------------------------------------------------------------------------
 guitar 2                                                                     

|-7p3---7p3---7p3---7p3---7p3-----9p6---9p6---9p6-/14--------------------------
|-----5-----5-----5-----5-----5-------7-----7----------------------------------
|------------------------------------------------------------------------------
|------------------------------------------------------------------------------
|------------------------------------------------------------------------------
|------------------------------------------------------------------------------
| guitar 1                                                                     
|
|-3p0---3p0---3p0---3p0---3p0-----6p2---6p2---6p2-/9---------------------------
|-----0-----0-----0-----0-----0-------2-----2----------------------------------
|------------------------------------------------------------------------------
|------------------------------------------------------------------------------
|------------------------------------------------------------------------------
|------------------------------------------------------------------------------
 guitar 2                                                     

any questions? andrewbiles@hotmail.com 
Аккорд DАккорд F#7Аккорд F#7/C#

Eagles — Hotel California

 PROPS GO TO: Daryl Djojo & Maurice vT.

#================================================#
#  The Eagles - Hotel California (Live Version)  #
#      Tabbed by Daryl Djojo & Maurice vT.       #
#================================================#

*|=============================================================(,,)====|*
*|     Yeahhh baby, now this is the correct tab for this song, 	       |*
*| We hope you guys and galls out there like it (know what I mean?!?). |*
*|       Any comments about the tabs don't hesitate to ask.	       |*
*|        Mail it at mvtilburg@msn.com, houdoe en bedankt... 	       |*
*|=====================================================================|*

Chords
-----------------
     E A D G B e
    +-----------+
B-   7 9 9 7 7 7   
F#   2 4 4 3 2 2   
A    5 7 7 6 5 5
E    0 2 2 1 0 0
G    3 5 5 4 3 3
D    0 0 0 2 3 2
    +-----------+
-----------------


`·.ее.·ґЇ`·.ее.·ґЇ`·.ее.·»  INTRO  «·.ее.·ґЇ`·.ее.·ґЇ`·.ее.·


Guitar 1 Steel Acoustic (capoed on 7th fret)
   E-                        D                       A- 
e|-0-----------------------|-----------------------|-0---------------------------|
B|-0-----------------------|-3---------------------|-1---------------------------|
G|-0-----------------------|-2---------------------|-2---------------------------|
D|-2-----------------------|-4---------------------|-2---------------------------|
A|-2-----------------------|-0---------------------|-0---------------------------|
E|-0-----------------------|-----------------------|-----------------------------|

Guitar 2 Nylon Acoustic   
                                                                      *~*Repeat*~*
e|----------------0-2-2h3p2|-----------------------|-----0---0---0---0--7-0--10-0|
B|--0-0h2---0-2-3----------|---0-3-2---------------|----0---0---0---0--8----8----|
G|--------3----------------|--2-----2-2h4p2--------|---0---2---4---7--9----9-----|
D|-------------------------|----------------42-0/2|--2---4---5---9--------------|
A|-------------------------|-----------------------|-----------------------------|
E|-------------------------|-----------------------|-----------------------------|

Guitar 1 Steel Acoustic (capoed on 7th fret)
            B7
e|------------------2-----|
B|------------------0-----|
G|--------------2---2-----|
D|------------1-----1-----|
A|----------2-------------|
E|------------------------|

Guitar 2 Nylon Acoustic  

e|-7-6-7-9-10-9-10-12--14-|
B|------------------------|
G|------------------------|
D|------------------------|
A|------------------------|
E|------------------------|


*6 BARS OF PERCUSSION THEN PLAY:


Guitar 1 Steel Acoustic (capoed on 7th fret)
   E-                             D                      
e|-0----------------------------|------------------------------------------|
B|-0----------------------------|-3----------------------------------------|
G|-0----------------------------|-2----------------------------------------|
D|-2----------------------------|-4----------------------------------------|
A|-2----------------------------|-0----------------------------------------|
E|-0----------------------------|------------------------------------------|

Guitar 2 Nylon Acoustic

e|--2h3p2-0-2-2-0-2--0----------|------------------0-3-2-3-7-9-10-9-10-12--|
B|------------------3-3-0-------|---0-3-2-2-2-0-2-3------------------------|
G|-----------------------2-2/4--|--2-----2---2-----------------------------|
D|------------------------------|------------------------------------------|
A|------------------------------|------------------------------------------|
E|------------------------------|------------------------------------------|

Guitar 1 Steel Acoustic (capoed on 7th fret)
   A-                                    B7
e|-0-----------------------------------|-2--------------------------------------|
B|-1-----------------------------------|-0--------------------------------------|
G|-2-----------------------------------|-2--------------------------------------|
D|-2-----------------------------------|-1--------------------------------------|
A|-0-----------------------------------|-2--------------------------------------|
E|-------------------------------------|----------------------------------------|

Guitar 2 Nylon Acoustic

e|---0---0---0------0-7-0-10-12-10-----|--9-9h10p97h9p7-6----------------------|
B|---0---0---0-----0---------------12--|------------------8-7-7-7-8-7-7---------|
G|---0---2---4----7--------------------|-----------------------------9-7--------|
D|--2---4---5----9---------------------|--------------------------------11-9-8--|
A|-------------------------------------|----------------------------------------|
E|-------------------------------------|----------------------------------------|

Guitar 1 Steel Acoustic (capoed on 7th fret)
   E-                  B7                  D                   E
e|-----------0-------|-------2-----------|-------0-----------|-----------0-------|
B|-------0-----------|-----0---2-4-------|-----3-----3-------|-------0-----------|
G|-----0---0-----0-2-|---2---------------|---2-----2----2----|-----0---0---------|
D|---2---------------|-1-----------------|-0-----------------|---2---------------|
A|-------------------|-------------------|-------------------|-4-----------------|
E|-0-----------------|-------------------|-------------------|-------------------|

Guitar 2 Nylon Acoustic
   B-                  F#7                 A                   E
e|-----------7-------|-----------2-------|-----------5-------|-----------0-------|
B|-------7-----------|-------2-----------|-------5------5----|-------0-----------|
G|-----7---7-----7-9-|-----3---3---------|-----6---6----6----|-----1---1---------|
D|---9---------------|---2---------------|---7---------------|---2---------------|
A|-------------------|-------------------|-------------------|-------------------|
E|-7-----------------|-2-----------------|-5-----------------|-0-----------------|

Guitar 1 Steel Acoustic (capoed on 7th fret)
   C                     G                  A-                       B7
e|-----------0---------|-------3----------|-----------0------------|-----------2-|
B|-------1-------------|-----0-----0------|-------1----------------|-------0-----|
G|-----0---0---------0-|---0-----0--------|-----0---0--------------|---0-2---2---|
D|---2---------2-0h2---|------------------|---2--------------------|-------------|
A|-3-------------------|-2----------------|-0----------------------|-2-----------|
E|---------------------|---------------3--|--------------0---------|-------------|

Guitar 2 Nylon Acoustic
   G                     D                  E                        F#
e|-----------3--5-6-7--|-------2---5-3-2--|-----------0---0---0----|-----------2-|
B|-------3------5-6-7--|-----3---3-------3|-------0----0---0---0---|-------2-----|
G|-----4---4-----------|---2--------------|-----1---1---1---1------|-----3---3---|
D|---5-----------------|-0----------------|---2--------------------|---4---------|
A|---------------------|------------------|------------------------|-------------|
E|-3-------------------|------------------|-0----------------------|-2-----------|

Guitar 1 Steel Acoustic (capoed on 7th fret)
   E-                  B7                  D                   E
e|-----------0-------|----------2--------|-------0-----------|-----------0-------|
B|-------0-----------|-------0-----2--4--|-----3-----3-------|-------0-----------|
G|-----0---0-----0-2-|----2--------------|---2-----2----2----|-----0---0---------|
D|---2---------------|-1-----------------|-0-----------------|---2---------------|
A|-------------------|-------------------|-------------------|-4-----------------|
E|-0-----------------|-------------------|-------------------|-------------------|

Guitar 2 Nylon Acoustic
   B-                  F#7                 A                   E
e|-----------7-------|----------------2--|-----------5-------|-----------0-------|
B|-------7-----------|----------2--------|-------5------5----|-------0-----------|
G|-----7---7-----7-9-|-------3-----3-----|-----6---6----6----|-----1---1---------|
D|---9---------------|----2--------------|---7---------------|---2---------------|
A|-------------------|-------------------|-------------------|-------------------|
E|-7-----------------|-2-----------------|-5-----------------|-0-----------------|
                                                                                 
Guitar 3 Acoustic Bass (6 strings)                                              
                                                                               
e|-------------------|-------------------|-------------------|-------------------|
B|-------------------|-------------------|-------------------|-------------------|
G|-------------------|-------------------|-------------------|-------------------|
D|-0---------2---3---|-2------0h2p0------|------------0--2---|-----0-----2-------|
A|-------------------|----------------4--|-4-----------------|-2-4---4-2---------|
E|-------------------|-------------------|-------------------|-------------------|

Guitar 1 Steel Acoustic (capoed on 7th fret)
   C                     G                  A-                       B7
e|-----------0---------|-------3----------|-----------0------------|-----------2-|
B|-------1-------------|-----0------0-----|-------1----------------|-------0-----|
G|-----0---0---------0-|---0-----0--------|-----0---0--------------|---0-2---2---|
D|---2---------2-0h2---|------------------|---2--------------------|-------------|
A|-3-------------------|-2----------------|-0----------------------|-2-----------|
E|---------------------|---------------3--|--------------0---------|-------------|
                                                                                  
Guitar 2 Nylon Acoustic                                                          
   G                     D                  E                        F#
e|-----------3---------|-------2---5-3-2--|---------0-3-1-0--------|-----------2-|
B|-------3-----------3-|-----3---3-------3|-------0--------3-1-0---|-------2-----|
G|-----4---4---4-2h4---|---2--------------|-----1---------------2-0|-----3---3---|
D|---5-----------------|-0----------------|---2--------------------|---4---------|
A|---------------------|------------------|------------------------|-------------|
E|-3-------------------|------------------|-0----------------------|-2-----------|
                                                                                  
Guitar 3 Acoustic Bass (6 strings)                                                
                                                                                  
e|---------------------|------------------|------------------------|-------------|
B|---------------------|------------------|------------------------|-------------|
G|---------------------|------------------|------------------------|-------------|
D|---------------0-----|-----0-4-0-2/4-0--|-2---------4--5---------|-4h5p4---2-4-|
A|-2---------4---------|-0-4--------------|------------------------|-------------|
E|---------------------|------------------|------------------------|-------------|


`·.ее.·ґЇ`·.ее.·ґЇ`·.ее.·»  MAIN PART  «·.ее.·ґЇ`·.ее.·ґЇ`·.ее.·


Guitar 1 Steel Acoustic (capoed on 7th fret)
   E-                  B7                  D                   E
e|-----------0-------|-------2-----------|-------0-----------|-----------0-------|
B|-------0-----------|-----0---2-4-------|-----3-----3-------|-------0-----------|
G|-----0---0-----0-2-|---2---------------|---2-----2----2----|-----0---0---------|
D|---2---------------|-1-----------------|-0-----------------|---2---------------|
A|-------------------|-------------------|-------------------|-4-----------------|
E|-0-----------------|-------------------|-------------------|-------------------|

Guitar 2 Nylon Acoustic
   B-                  F#7                 A                   E
e|-----------7-------|-----------2-------|-----------5-------|-----------0-------|
B|-------7-----------|-------2-----------|-------5------5----|-------0-----------|
G|-----7---7-----7-9-|-----3---3---------|-----6---6----6----|-----1---1---------|
D|---9---------------|---2---------------|---7---------------|---2---------------|
A|-------------------|-------------------|-------------------|-------------------|
E|-7-----------------|-2-----------------|-5-----------------|-0-----------------|

Guitar 1 Steel Acoustic (capoed on 7th fret)
   C                     G                  A-                       B7
e|-----------0---------|-------3----------|-----------0------------|-----------2-|
B|-------1-------------|-----0-----0------|-------1----------------|-------0-----|
G|-----0---0---------0-|---0-----0--------|-----0---0--------------|---0-2---2---|
D|---2---------2-0h2---|------------------|---2--------------------|-------------|
A|-3-------------------|-2----------------|-0----------------------|-2-----------|
E|---------------------|---------------3--|--------------0---------|-------------|

Guitar 2 Nylon Acoustic
   G                     D                  E                        F#
e|-----------3--5-6-7--|-------2---5-3-2--|-----------0---0---0----|-----------2-|
B|-------3------5-6-7--|-----3---3-------3|-------0----0---0---0---|-------2-----|
G|-----4---4-----------|---2--------------|-----1---1---1---1------|-----3---3---|
D|---5-----------------|-0----------------|---2--------------------|---4---------|
A|---------------------|------------------|------------------------|-------------|
E|-3-------------------|------------------|-0----------------------|-2-----------|

Guitar 1 Steel Acoustic (capoed on 7th fret)
   E-                  B7                  D                   E
e|-----------0-------|-------2-----------|-------0-----------|-----------0-------|
B|-------0-----------|-----0---2-4-------|-----3-----3-------|-------0-----------|
G|-----0---0-----0-2-|---2---------------|---2-----2----2----|-----0---0---------|
D|---2---------------|-1-----------------|-0-----------------|---2---------------|
A|-------------------|-------------------|-------------------|-4-----------------|
E|-0-----------------|-------------------|-------------------|-------------------|

Guitar 2 Nylon Acoustic
   B-                  F#7                 A                   E
e|-----------7-------|----------------2--|-----------5-------|-----------0-------|
B|-------7-----------|----------2--------|-------5------5----|-------0-----------|
G|-----7---7-----7-9-|-------3-----3-----|-----6---6----6----|-----1---1---------|
D|---9---------------|----2--------------|---7---------------|---2---------------|
A|-------------------|-------------------|-------------------|-------------------|
E|-7-----------------|-2-----------------|-5-----------------|-0-----------------|

Guitar 1 Steel Acoustic (capoed on 7th fret)
   C                     G                  A-                       B7
e|-----------0---------|-------3----------|-----------0------------|-----------2-|
B|-------1-------------|-----0-----0------|-------1----------------|-------0-----|
G|-----0---0---------0-|---0-----0--------|-----0---0--------------|---0-2---2---|
D|---2---------2-0h2---|------------------|---2--------------------|-------------|
A|-3-------------------|-2----------------|-0----------------------|-2-----------|
E|---------------------|---------------3--|--------------0---------|-------------|

Guitar 2 Nylon Acoustic                                                          
   G                     D                  E                        F#
e|-----------3---------|-------2---5-3-2--|---------0-3-1-0--------|-----------2-|
B|-------3-----------3-|-----3---3-------3|-------0--------3-1-0---|-------2-----|
G|-----4---4---4-2h4---|---2--------------|-----1---------------2-0|-----3---3---|
D|---5-----------------|-0----------------|---2--------------------|---4---------|
A|---------------------|------------------|------------------------|-------------|
E|-3-------------------|------------------|-0----------------------|-2-----------|


`·.ее.·ґЇ`·.ее.·ґЇ`·.ее.·»  CHORUS I «·.ее.·ґЇ`·.ее.·ґЇ`·.ее.·


Guitar 1 Steel Acoustic (capoed on 7th fret)
           C                    G                  B7             E-
e|-------------------0--------|-------3----------|-----------2--|-----------0----|
B|---------------1------------|-----0-----0------|-------0------|-------0--------|
G|-------0-----0---0---------0|---0-----0--------|---0-2---2----|-----0---0------|
D|-1-2-4-----2---------2-0h2--|------------------|--------------|---2------------|
A|---------3------------------|-2----------------|-2------------|-------------0-2|
E|----------------------------|---------------3--|--------------|-0--------------|
                                                                             
Guitar 2 Nylon Acoustic                                                         
           G                    D                  F#             B-        
e|-------------------3--------|-------2---5-3-2--|-----------2--|-----------2----|
B|---------------3-----------3|-----3---3-------3|-------2-----2|-------2------3-|
G|-------------4---4---4-2h4--|---2--------------|-----3---3---3|-----4---4----4-|
D|-----------5----------------|-0----------------|---4----------|---4------------|
A|----------------------------|------------------|--------------|-2--------------|
E|---------3------------------|------------------|-2------------|----------------|
                                                                                
Guitar 3 Acoustic Bass (6 strings)                                              
                                                                                 
e|----------------------------|------------------|--------------|----------------|
B|----------------------------|---3-3-3-3-3/5-3-3|--------------|----------------|
G|----------------------------|---2-2-4-2-4/6-4-2|--------------|----------------|
D|----------------------------|------------------|--------------|-----------0-2-4|
A|---1-2-4-5------------------|------------------|--------------|-2---4----------|
E|-2--------------------------|------------------|--------------|----------------|

Guitar 1 Steel Acoustic (capoed on 7th fret)
   C                     G                   A-                   B7 
e|-----------0---------|-------3-----------|-----------0--------|-----------2----|
B|-------1-------------|-----0-----0-------|-------1------------|-------0--------|
G|-----0---0---------0-|---0-----0---------|-----0---0----------|---0-2---2------|
D|---2---------2-0h2---|-------------------|---2----------------|----------------|
A|-3-------------------|-2-----------------|-0------------------|-2--------------|
E|---------------------|---------------3---|-------------0------|----------------|
                                                                             
Guitar 2 Nylon Acoustic                                                         
   G                     D                   E                    F#         
e|-----------3---------|-------2---5-3-2---|-----------0--0--0--|-----------2----|
B|-------3-----------3-|-----3---3-------3-|-------0----0--0--0-|-------2-----2--|
G|-----4---4---4-2h4---|---2---------------|-----1---1---1--1---|-----3---3---3--|
D|---5-----------------|-0-----------------|---2----------------|---4------------|
A|---------------------|-------------------|--------------------|----------------|
E|-3-------------------|-------------------|-0------------------|-2--------------|
                                                                                
Guitar 3 Acoustic Bass (6 strings)                                              
                                                                                 
e|---------------------|---9--9--9-7-7-75-5-5-|----------------|---------------|
B|---------------------|---10-10-108-8-87-7-7-|----------------|---------------|
G|---------------------|------------------------|----------------|---------------|
D|---------------------|------------------------|----------------|---------------|
A|---------------------|------------------------|----------------|---------------|
E|---------------------|------------------------|----------------|---------------|


`·.ее.·ґЇ`·.ее.·»  Play the MAIN PART again and then CHORUS II  «·.ее.·ґЇ`·.ее.·ґ
                                          
                                                                    
`·.ее.·ґЇ`·.ее.·ґЇ`·.ее.·»  CHORUS II «·.ее.·ґЇ`·.ее.·ґЇ`·.ее.·      
                                                                
                                     
Guitar 1 Steel Acoustic (capoed on 7th fret)         
           C                    G                  B7             E-   
e|-------------------0--------|-------3----------|-----------2--|-----------0----|
B|---------------1------------|-----0-----0------|-------0------|-------0--------|
G|-------0-----0---0---------0|---0-----0--------|---0-2---2----|-----0---0------|
D|-1-2-4-----2---------2-0h2--|------------------|--------------|---2------------|
A|---------3------------------|-2----------------|-2------------|-------------0-2|
E|----------------------------|---------------3--|--------------|-0--------------|
                                                                        
Guitar 2 Nylon Acoustic                                           
           G                    D                  F#             B-    
e|-------------------3--------|-------2---5-3-2--|-----------2--|-----------2----|
B|---------------3-----------3|-----3---3-------3|-------2-----2|-------2------3-|
G|-------------4---4---4-2h4--|---2--------------|-----3---3---3|-----4---4----4-|
D|-----------5----------------|-0----------------|---4----------|---4------------|
A|----------------------------|------------------|--------------|-2--------------|
E|---------3------------------|------------------|-2------------|----------------|
                                                                       
Guitar 3 Acoustic Bass (6 strings)                                 
                                                                  
e|----------------------------|---9--9--9-7-7-75-5-5-|--------|----------------|
B|----------------------------|---10-10-108-8-87-7-7-|--------|----------------|
G|----------------------------|------------------------|--------|----------------|
D|----------------------------|------------------------|--------|-----------0-2-4|
A|---1-2-4-5------------------|------------------------|--------|-2---4----------|
E|-2--------------------------|------------------------|--------|----------------|
                                                                    
Guitar 1 Steel Acoustic (capoed on 7th fret)                   
   C                     G                   A-                   B7  
e|-----------0---------|-------3-----------|-----------0--------|-----------2----|
B|-------1-------------|-----0-----0-------|-------1------------|-------0--------|
G|-----0---0---------0-|---0-----0---------|-----0---0----------|---0-2---2------|
D|---2---------2-0h2---|-------------------|---2----------------|----------------|
A|-3-------------------|-2-----------------|-0------------------|-2--------------|
E|---------------------|---------------3---|-------------0------|----------------|
                                                                     
Guitar 2 Nylon Acoustic                                              
   G                     D                   E                    F#        
e|-----------3---------|-------2---5-3-2---|-----------0--0--0--|-----------2----|
B|-------3-----------3-|-----3---3-------3-|-------0----0--0--0-|-------2-----2--|
G|-----4---4---4-2h4---|---2---------------|-----1---1---1--1---|-----3---3---3--|
D|---5-----------------|-0-----------------|---2----------------|---4------------|
A|---------------------|-------------------|--------------------|----------------|
E|-3-------------------|-------------------|-0------------------|-2--------------|
                                                                             
Guitar 3 Acoustic Bass (6 strings)                                        
                                                                        
e|---------------------|---7-7-75-5-53-3-|--------------------|----------------|
B|---------------------|---8-8-87-7-75-5-|--------------------|----------------|
G|---------------------|-------------------|--------------------|----------------|
D|---------------------|-------------------|--------------------|----------------|
A|---------------------|-------------------|--------------------|----------------|
E|---------------------|-------------------|--------------------|----------------|


`·.ее.·ґЇ`·.ее.·ґЇ`·.ее.·»  MUSIC SOLO  «·.ее.·ґЇ`·.ее.·ґЇ`·.ее.·    (Guitar 1)


Guitar 1 Steel Acoustic (capoed on 7th fret)
   E-                  B7                  D                   E        
e|-----------0-------|-------2-----------|-------0-----------|-----------0-------|
B|-------0-----------|-----0---2-4-------|-----3-----3-------|-------0-----------|
G|-----0---0-----0-2-|---2---------------|---2-----2----2----|-----0---0---------|
D|---2---------------|-1-----------------|-0-----------------|---2---------------|
A|-------------------|-------------------|-------------------|-4-----------------|
E|-0-----------------|-------------------|-------------------|-------------------|

   C                     G                  A-                       B7
e|-----------0---------|-------3----------|-----------0------------|-----------2-|
B|-------1-------------|-----0-----0------|-------1----------------|-------0-----|
G|-----0---0---------0-|---0-----0--------|-----0---0--------------|---0-2---2---|
D|---2---------2-0h2---|------------------|---2--------------------|-------------|
A|-3-------------------|-2----------------|-0----------------------|-2-----------|
E|---------------------|---------------3--|--------------0---------|-------------|
                                                                    
                                                                      
Guitar 1 Steel Acoustic (capoed on 7th fret)                          
   E-                  B7                  D                   E         
e|-----------0-------|-------2-----------|-------0-----------|-----------0-------|
B|-------0-----------|-----0---2-4-------|-----3-----3-------|-------0-----------|
G|-----0---0-----0-2-|---2---------------|---2-----2----2----|-----0---0---------|
D|---2---------------|-1-----------------|-0-----------------|---2---------------|
A|-------------------|-------------------|-------------------|-4-----------------|
E|-0-----------------|-------------------|-------------------|-------------------|
                                                                
Guitar 2 Nylon Acoustic                                       
   B-                  F#7                 A                   E    
e|-----------7-------|----------------2--|-----------5-------|-----------0-------|
B|-------7-----------|----------2--------|-------5------5----|-------0-----------|
G|-----7---7-----7-9-|-------3-----3-----|-----6---6----6----|-----1---1---------|
D|---9---------------|----2--------------|---7---------------|---2---------------|
A|-------------------|-------------------|-------------------|-------------------|
E|-7-----------------|-2-----------------|-5-----------------|-0-----------------|
                                                                  
Guitar 1 Steel Acoustic (capoed on 7th fret)                          
   C                     G                  A-                       B7  
e|-----------0---------|-------3----------|-----------0------------|-----------2-|
B|-------1-------------|-----0-----0------|-------1----------------|-------0-----|
G|-----0---0---------0-|---0-----0--------|-----0---0--------------|---0-2---2---|
D|---2---------2-0h2---|------------------|---2--------------------|-------------|
A|-3-------------------|-2----------------|-0----------------------|-2-----------|
E|---------------------|---------------3--|--------------0---------|-------------|
                                                         
Guitar 2 Nylon Acoustic                                                     
   G                     D                  E                        F#    
e|-----------3---------|-------2---5-3-2--|---------0-3-1-0--------|-----------2-|
B|-------3-----------3-|-----3---3-------3|-------0--------3-1-0---|-------2-----|
G|-----4---4---4-2h4---|---2--------------|-----1---------------2-0|-----3---3---|
D|---5-----------------|-0----------------|---2--------------------|---4---------|
A|---------------------|------------------|------------------------|-------------|
E|-3-------------------|------------------|-0----------------------|-2-----------|
                                                                       
                                                                      
`·.ее.·ґЇ`·.ее.·ґЇ`·.ее.·»  1st SOLO  «·.ее.·ґЇ`·.ее.·ґЇ`·.ее.·    (Guitar 3)  
                                                            
                                                                         
Guitar 1 Steel Acoustic (capoed on 7th fret)                   
             E-                  B7             D                  
e|---------|-----------0-------|-------2------|-------0--------------------------|
B|---------|-------0-----------|-----0---2-4--|-----3-----3----------------------|
G|---------|-----0---0-----0-2-|---2----------|---2-----2----2-------------------|
D|---------|---2---------------|-1------------|-0--------------------------------|
A|---------|-------------------|--------------|----------------------------------|
E|---------|-0-----------------|--------------|----------------------------------|

Guitar 2 Nylon Acoustic                                                  
             B-                  F#7            A                        
e|---------|-----------7-------|------------2-|-----------5----------------------|
B|---------|-------7-----------|-------2------|-------5------5-------------------|
G|---------|-----7---7-----7-9-|-----3----3---|-----6---6----6-------------------|
D|---------|---9---------------|---2----------|---7------------------------------|
A|---------|-------------------|--------------|----------------------------------|
E|---------|-7-----------------|-2------------|-5--------------------------------|
                                                                    
Guitar 3 Acoustic Bass (6 strings)                               
             B-                  F#7            A                       
e|---------|-------------------|-7-5-3-2--9-10|-12-12-12-12-10-9-12-10-9-10-9----|
B|---------|-------------------|--------------|-------------------------------12-|
G|-----6-9-|-9-9-9-97-6-9-7-6-|-7-6-4-3------|----------------------------------|
D|-8-9-----|-------------------|--------------|----------------------------------|
A|---------|-------------------|--------------|----------------------------------|
E|---------|-------------------|--------------|----------------------------------|
                                                                         
Guitar 1 Steel Acoustic (capoed on 7th fret)                            
   E                                                                 
e|-----------0--------|                                            
B|-------0------------|                                          
G|-----0---0----------|                                       
D|---2----------------|                                       
A|-4------------------|                                         
E|--------------------|                                     

Guitar 2 Nylon Acoustic
   E 
e|-----------0-------|
B|-------0-----------|
G|-----1---1---------|
D|---2---------------|
A|-------------------|
E|-0-----------------|
                                                                      
Guitar 3 Acoustic Bass (6 strings)                   
   E                                                         
e|--------------------|                               
B|-9-9----------------|                                
G|-----9-9------------|                                    
D|---------9----------|                                      
A|-----------9-9h11---|                                                       
E|------------------2-|                                    
                                                                   
Guitar 1 Steel Acoustic (capoed on 7th fret)                               
   C                       G                A-                       B7      
e|-----------0-----------|-------3--------|-----------0------------|-----------2-|
B|-------1---------------|-----0-----0----|-------1----------------|-------0-----|
G|-----0---0---------0---|---0-----0------|-----0---0--------------|---0-2---2---|
D|---2---------2-0h2-----|----------------|---2--------------------|-------------|
A|-3---------------------|-2--------------|-0----------------------|-2-----------|
E|-----------------------|--------------3-|--------------0---------|-------------|

Guitar 2 Nylon Acoustic                                               
   G                     D                  E                        F#   
e|-----------3---------|-------2---5-3-2--|---------0-3-1-0--------|-2-----------|
B|-------3-----------3-|-----3---3-------3|-------0--------3-1-0---|-2-----------|
G|-----4---4---4-2h4---|---2--------------|-----1---------------2-0|-3-----------|
D|---5-----------------|-0----------------|---2--------------------|-4-----------|
A|---------------------|------------------|------------------------|-4-----------|
E|-3-------------------|------------------|-0----------------------|-2-----------|
                                                                                  
Guitar 3 Acoustic Bass (6 strings)  

   G                       D                E                        F#
e|-----------------------|----------------|-0--0---0---0-----0-0---|-2-2----------
B|-----------------------|----------------|-0---0---0---0----0-0---|-2--2---------
G|-------------------0---|-2/42-4p2------|-0----0---0---0---0-0---|-3---3--------
D|-------0---2-0-4-2---4-|-----------4----|-2-----2---2---2--2-----|-4----4-------
A|---0-2---4-------------|----------------|-2----------------2-----|-4-----4------
E|-3---------------------|----------------|-0----------------------|-2------2-----


`·.ее.·ґЇ`·.ее.·ґЇ`·.ее.·»  2nd SOLO  «·.ее.·ґЇ`·.ее.·ґЇ`·.ее.·    (Guitar 2)


Guitar 1 Steel Acoustic (capoed on 7th fret)
                            E-                              B7 
e|------------------------|-----------0-------------------|-------2--------------|
B|------------------------|-------0-----------------------|-----0---2-4----------|
G|------------------------|-----0---0-----0-2-------------|---2------------------|
D|------------------------|---2---------------------------|-1--------------------|
A|------------------------|-------------------------------|----------------------|
E|------------------------|-0-----------------------------|----------------------|
                                                 
Guitar 2 Nylon Acoustic
                            B-                              F#7
e|------------------------|-------------------------------|----------------/14---|
B|------------------------|-------------------------------|------12-14-12-11-----|
G|------------------------|-------------------------------|----------------------|
D|--------------------9-11|---9-11-11h12p119-9h11p97-6--|-----9-------------12|
A|-9-9h11p98-9-11-12-----|-12---------------------------9|-8-11-----------------|
E|------------------------|-------------------------------|----------------------|

                                                   
Guitar 3 Acoustic Bass (6 strings)

   F#                    
---2-2---------------------|
---2-2---------------------|
---3-3---------------------|
---4-4---------------------|
---4-----------------------|
---------------------------|

Guitar 1 Steel Acoustic (capoed on 7th fret)
   D                           E                      
e|-------0-------------------|-----------0----------|
B|-----3-----3---------------|-------0--------------|
G|---2-----2----2------------|-----0---0------------|
D|-0-------------------------|---2------------------|
A|---------------------------|-4--------------------|
E|---------------------------|----------------------|

Guitar 2 Nylon Acoustic
   A                           E
e|---------------------------|--------------------0-|
B|---7-7-7-5-5-5-------------|-3-3h5p3-2h3p2-0------|
G|---------------7-7-6-4-2-1-|-----------------2-1--|
D|---------------------------|----------------------|
A|-7-------------------------|----------------------|
E|---------------------------|----------------------|

Guitar 1 Steel Acoustic (capoed on 7th fret)                  
   C                                        G                               
e|-----------0----------------------------|-------3------------------------------|
B|-------1--------------------------------|-----0-----0--------------------------|
G|-----0---0---------0--------------------|---0-----0----------------------------|
D|---2---------2-0h2----------------------|--------------------------------------|
A|-3--------------------------------------|-2------------------------------------|
E|----------------------------------------|---------------3----------------------|

Guitar 2 Nylon Acoustic
   G                                        D
e|----------------------------------0-2-3-|-5-5-5-5/7-5-3/5----------------------|
B|------------------0-0h2p0---0-2-3-------|-7-7-7-7/8-7-5/7---------------0h2h3--|
G|-----0h2p0---0--2---------3-------------|------------------------0h1h2h3-------|
D|-2-4-------4----------------------------|-----------------0h2h3h4--------------|
A|----------------------------------------|--------------------------------------|
E|----------------------------------------|--------------------------------------|
       
Guitar 1 Steel Acoustic (capoed on 7th fret)               
   A-                                   B7                    
e|-----------0------------------------|-----------2------------------------------|
B|-------1----------------------------|-------0----------------------------------|
G|-----0---0--------------------------|---0-2---2--------------------------------|
D|---2--------------------------------|------------------------------------------|
A|-0----------------------------------|-2----------------------------------------|
E|--------------0---------------------|------------------------------------------|

Guitar 2 Nylon Acoustic
   E                                    F#
e|-0----------7-----10-7-6-12-10------|-2-2h3p2
Аккорд EАккорд AАккорд DАккорд GАккорд BАккорд B-Аккорд F#Аккорд E-Аккорд A-Аккорд B7Аккорд F#7Аккорд C

Eagles — Hotel California

                             Hotel California
                                 Eagles

Tab by:omanyen@fusemail.com

There are numorous tabs on this song. Some are good, others are just 
awful. Many are repeats that people got from other sights. All of them
have one thing in common: they don't show you how to play it CORRECTLY,
with only a four-piece band. Yes, there are as many as EIGHT,count 'em,
EIGHT ( 8 ), separate and distinct guitar parts.But you CAN play this 
song with 1 drummer, 1 bass player, 1 rhythm guitar player, and 1 lead
guitar player.  I've tabbed this in small increments to make it more
easily read and understood. The first part is the intro, finger-picked,
and is played throughout the song. The 2nd part is the incredible lead,
tabbed for ONE guitar player. ENJOY!!!


INTRO:( finger-picked, using just the thumb and index finger )
 
 Bm

--2--2--------2-----------2---------0--2---|
--3-----3--------3-----------3-------------|
--4--------4--------4-----------4----------|
--4--------------------4------------4--4---|
-------------------------------------------|
-------------------------------------------| 

 F#m

--2--2--------2----------| short |--2-----------|
--2-----2--------2-------| pause |-----2--------|
--2--------2--------2----|       |--------2-----|
--4--------------------4-|       |-----------4--|
--4----------------------|       |--------------|
-------------------------|       |--------------|

  A

--2--2--------2---------------------------|
--2-----2--------2------3--2-----5--2-----|
--2--------2--------2---------2--------2--|
--2---------------------------------------|
--0---------------------0--0--0--0--0--0--|
------------------------------------------|

  Em

--0--0--------0--------0--| short |--0--------|
--0-----0--------0-----0--| pause |-----0-----|
--0-----------------0--0--|       |--------0--|
--2--------2-----------2--|       |-----------|
--2--------------------2--|       |-----------|
--0--------------------0--|       |-----------|

  G                 h=hammer   

--3--3---------3-----------3---------------3-----|
--3-----3---------3-----------3-------3h5-----5--|
--4--------4---------4-----------4---------------|
--5---------------------5-------------5----------|
-------------------------------------------------|
-------------------------------------------------|

  D                 h=hammer     p=pull off

------2--------2-----------2------2h3p2---------|
--3------3--------3-----------3-----------3-----|
------------2--------2-----------------------2--|
--0---------------------0-----------------------|
------------------------------------------------|
------------------------------------------------|

  Em

-----0-----------0-----------0--------0--------|
--------0-----------0-----------0--------0-----|
-----------0-----------0--------------------0--|
--------------2--------------------2-----------|
--------------------------2--------------------|
--0--------------------------------------------|

  F#                                              Bm
                              
--2--2--------2-----------| short |--2-------------2----|
--2-----2--------2--------| pause |-----2----------3----|
--3--------3--------3-----|       |--------3-------4----|
--4--------------------4--|       |-----------4----4----|
--------------------------|       |---------------------|
--------------------------|       |---------------------|


Bm

On a dark desert highway

F#m

Cool wind in my hair

A

Warm smell of Colitas

Em

Rising up through the air

G

Up ahead in the distance

D

I saw a shimmering light

Em

My head grew heavy and my sight grew dim

F#

I had to stop for the night

Bm

There she stood in the doorway

F#m

I heard the mission bell

A

And I was thinking to myself this could be-

Em

Heaven or this could be Hell

G

Then she lit up a candle

D

And she showed me the way

Em

There were voices down the corridor

F#

I thought I heard them say
----------------------------------------------------------------------
( CHORUS )

G                         D

Welcome to the Hotel Cali-fornia

       F#

Such a lovely place

       Bm

Such a lovely face

G                                D

Plenty of room at the Hotel Cali-fornia

    Em                     F#

Any time of year - You can find it here.
----------------------------------------------------------------------
Bm 

Her mind is Tiffany twisted

F#m

She got the Mercedes Benz - uh-huh

A

She got alot of pretty, pretty boys

Em

That she calls friends

G

How they dance in the court yard

D

Swee--eet summer sweat

Em

Some dance to remember

F#

some dance to forget

Bm

So I called up the captain

F#m

Please bring me my wine - he said

A

We haven't had that spirit here since

Em

Nineteen sixty nine

G

And still those voices are calling from 

D

Faa--aar  awaa--aay 

Em

Wake you up in the middle of the night

F#

Just to hear them say
----------------------------------------------------------------------
  ( CHORUS )

G                         D

Welcome to the Hotel Cali-fornia

F#

Such a lovely place

Bm

Such a lovely face

        G                              D

They're livin' it up at the Hotel Cali-fornia

Em

What a nice surprise

F#

Bring your alibis

----------------------------------------------------------------------
Bm 

Mirrors on the ceiling

F#m

Pink champagne on ice - and she said

A

We are all just prisoners here

Em

Of our own device

G

And in the masters chambers

D

They gathered for their feast

Em

They stab it with their steely knives - but they

F#

just can't kill the beast

Bm

Last thing I remember,- I was

F#m

Running for the door

A

I had to find the passage back, to the

Em

place I was before

G

Relax said the night man we are

D

Programmed to receive

Em

You can check out any time you like

F#

But you can never leave
----------------------------------------------------------------------

  ( LEAD ) /=slide up   =slide down   h=hammer  
            
           v=vibrate x=mute    p=pulloff
                                                      (very quickly)
-----------------------------------|----------------|----------------|
--------10--12---12/15---10h12-----|-------7--------|----------------|
-///11--------------------------9--|--7h9-----7-----|----------------|
-----------------------------------|-------------8v-|--7h8h9p7h8v----|
-----------------------------------|----------------|----------------|
-----------------------------------|----------------|----------------|



---------------------------------------------|
-------7--------------------7----------------|
--7h9-----7------------7h9-----7-------------|
-------------9--7--9--------------9--7--9--7-|
---------------------------------------------|
---------------------------------------------|



--------10-------------------|
--9/12------1210--7--10--8--|
-----------------------------|
-----------------------------|
-----------------------------|
-----------------------------|



--7-----9/12--12--10--10p7------|---------10-------------|
-----7----------------------10--|--10/12------1210--8v--|
--------------------------------|------------------------|
--------------------------------|------------------------|
--------------------------------|------------------------|
--------------------------------|------------------------|



---------------------------------|
--------10-----------------------|
--7/11------119--7----7--6--7v--|
---------------------------------|
---------------------------------|
---------------------------------|

   *= kill the note as soon as it's struck

------------------------------------------------------|
-------7h8*--7h8p7*---------7h8*--7h8*--7h8p7*--------|
--7/9----------------9--7-----------------------9--7--|
------------------------------------------------------|
------------------------------------------------------|
------------------------------------------------------|



---------------------------------------|
--------10------10---------------------|
--9/11------11------9h11p9------9h11v--|
----------------------------12---------|
---------------------------------------|
---------------------------------------|



---------------------------------------------------------------|
-------10------10------10------10------------------------------|
--9h11----9h11----9h11----9h11----9h11p9----9--9h11v//////////-|
-----------------------------------------12--------------------|
---------------------------------------------------------------|
---------------------------------------------------------------|

   ^=bend up so note equals 1 fret

-----------------------|----------7-------|------10-------------|
--9^--7h8p7------------|-------7-----9--7-|-9/12----12-11-10-9--|
--x----------7h9p7-----|--7h9-------------|---------------------|
--x-----------------9--|------------------|---------------------|
--x--------------------|------------------|---------------------|
--x--------------------|------------------|---------------------|



-------10--10--12--10--12/14--1412--10------|
--9/12-----------------------------------12--|
---------------------------------------------|
---------------------------------------------|
---------------------------------------------|
---------------------------------------------|



---------14--15--17p15p14------------|
--15h17--------------------15--15-17-|
-------------------------------------|
-------------------------------------|
-------------------------------------|
-------------------------------------|



---------17--17------------|--------------------|
--17/19----------19p17h19v-|-17--19p17------17--|
---------------------------|------------18------|
---------------------------|--------------------|
---------------------------|--------------------|
---------------------------|--------------------|



---------17--17------------|--------------------|
--17/19----------19p17h19v-|-17--19p17------17--|
---------------------------|------------18------|
---------------------------|--------------------|
---------------------------|--------------------|
---------------------------|--------------------|



--7//10v----------------------------------------|
----------15--12--15--12--15p12p0----------11v--|
----------x------------------------12--11-------|
----------x-------------------------------------|
----------x-------------------------------------|
----------x-------------------------------------|

 note-during this part- on the 12's- bend, then gradually release

--12-12-12-12-12-12-12-12-12-12-12p10p0---10p7p0-------|
--x-----------------------------------------------12v--|
--x----------------------------------------------------|
--x----------------------------------------------------|
--x----------------------------------------------------|
--x----------------------------------------------------|



--------------------------|
--10p7p0--------------10v-|
----------9--7--9/11------|
--------------------------|
--------------------------|
--------------------------|



---------------------------------------------------------------|
-------10----8---7-----------------------------------8/9-8--7-|
--9/11----11---9---7--9---7--------------------------9/119--7-|
------------------------9---7--9---7---5---------7-9-----------|
---------------------------------9---7---7-5-7/9---------------|
---------------------------------------------------------------|



---------------------------7--9---|
--7--8--8--10--12--11--11--9--11--|
--7--9--9--11--12--11--11---------|
----------------------------------|
----------------------------------|
----------------------------------|


----------------------------------------------------------------------


-14-10-----14-10-----14-10-----14-10-----14-10-----|
-x-----12--------12--------12--------12--------12--|
-x-------------------------------------------------|
-x-------------------------------------------------|
-x-------------------------------------------------|
-x-------------------------------------------------|



--9--------9--------9-----11///14v--|
----10-------10-------10------------|
-------11-------11------------------|
------------------------------------|
------------------------------------|
------------------------------------|



--9-------9-------9------9-------9-------|
----10------10------10-----10------10----|
-------9-------9-------9------9-------9--|
-----------------------------------------|
-----------------------------------------|
-----------------------------------------|



--7------7------7-----9//12v--|
----8------8------8-----------|
------9------9----------------|
------------------------------|
------------------------------|
------------------------------|



--7------7-----7-----7-----7------|
----8------8-----8-----8-----8----|
------7------7-----7-----7-----7--|
----------------------------------|
----------------------------------|
----------------------------------|



--5------5-----5----7//10v--|
----7------7-----7----------|
------7------7--------------|
----------------------------|
----------------------------|
----------------------------|



--3------3-----3-----3-----3------|
----5------5-----5-----5-----5----|
------4------4-----4-----4-----4--|
----------------------------------|
----------------------------------|
----------------------------------|



--6------6------6----7//9--7h9p7--6---|
----7------7------7-------------------|
------6------6------------------------|
--------------------------------------|
--------------------------------------|
--------------------------------------|

  Repeat this entire sequence and end on 4 beats of Bm


  Any questions, comments, or complaints, feel free 
  to E-mail me or post a thread at this sight. 
Аккорд BmАккорд F#mАккорд AАккорд EmАккорд GАккорд DАккорд F#

Eagles — Hotel California

 

Intro: Hm | F#7 | Asus2 | E9 | G | D | Em7 | F#7  } 2 times

Hm                       F#7
On a dark desert highway, cool wind in my hair,
Asus2                E9
Warm smell of colitas rising up through the air.
G                        D
Up ahead in the distance, I saw a shimmering light.
Em7                                      F#7
My head grew heavy and my sight grew dim; I had to stop for the night.

There she stood in the doorway; I heard the mission bell.
A         Asus2 Asus4/E                     E9
An' I was thinkin' to myself: this could be heaven or this could be hell.
Then she lit up a candle, an' she showed me the way.
There were voices down the corridor; I thought I heard them say:

Chorus:
   G                           D
     "Welcome to the Hotel California,
            F#7                                        Hm     A/C#  Hm/A
     Such a lovely place, (such a lovely place) such a lovely face.
 A/E G                               D
     Plenty of room at the Hotel California.
         Em                                       F#7
     Any time of year, (any time of year) you can find it here".

Her mind is Tiffany twisted. She got the Mercedes bends. (Uh)
She got a lot of pretty, pretty boys, that she calls friends.
How they dance in the courtyard; sweet summer sweat.
Some dance to remember; some dance to forget.

So I called up the captain: "Please bring me my wine".
He said, "We haven't had that spirit here since nineteen sixty nine".
An' still those voices are calling from far away;
Wake you up in the middle of the night just to hear them say:

Chorus:
     "Welcome to the Hotel California,
     Such a lovely place, (such a lovely place) such a lovely face.
     They're livin' it up at the Hotel California.
     What a nice surprise, (what a nice surprise). Bring your alibis".

Mirrors on the ceiling, the pink champagne on ice,
An' she said, "We are all just prisoners here of our own device".
An' in the master's chambers, they gathered for the feast.
They stab it with their steely knives, but they just can't kill the beast.

Last thing I remember I was running for the door.
I had to find the passage back to place I was before.
"Relax", said the nightman, "We are programmed to receive.
You can check out any time you like but you can never leave".
 
Аккорд HmАккорд F#7Аккорд Asus2Аккорд E9Аккорд GАккорд DАккорд Em7Аккорд AАккорд Asus4/EАккорд A/C#Аккорд Hm/AАккорд A/EАккорд Em

Eagles — Hotel California

 E|-------7--------------|-7---0-|---0-2-0-9-2-0-|---|---0-5-0-7|
B|-----7----------7---3-|---3---|---------------|---|----------|
G|---7-----4----4---4---|-------|-3-------------|-3-|-2--------|
D|-----------12---------|-------|---------------|---|----------|
A|-2--------------------|-------|---------------|---|----------|
E|----------------------|-------|---------------|---|----------|
 
E|--|---0-5---0-5-|---2---2-------|7|------3-------|-7-------|-|
B|10|-------------|-----3---3-0---|-|--3-0---3-----|-------3-|3|
G|--|-2-----------|-1-----------1-|-|0---------4-0-|---0-2---|-|
D|--|-------2-----|---------------|-|--------------|---------|0|
A|--|-------------|---------------|-|--------------|---------|-|
E|--|-------------|---------------|-|--------------|---------|-|

E|5-2---10-2--|----2-----2|--------3---3|7----------|-----0---2|
B|----3------3|--3-----3--|--0-3-0---0--|--0-----0-3|----------|
G|------------|-----------|-------------|----7------|---3---3--|
D|------------|4-----0----|2------------|-----------|-4--------|
A|------------|-----------|-------------|2-----2----|----------|
E|------------|-----------|-------------|-----------|----------|

E|---|9|-----------7-------------|-7---0-|---0-2-0-9-2-0-|-|--0|
B|5--|-|---------7---------7-----|---3---|---------------|-|---|
G|--3|-|-------7-----4-7-4---4-7-|-------|-3-------------|3|2--|
D|---|-|-----9-------------------|-------|---------------|-|---|
A|---|-|---9---------------------|-------|---------------|-|---|
E|---|-|-7-----------------------|-------|---------------|-|---|

E|5-0-7---|--0-5---0-5|--2---2------|7-|-------3-------|-7-----|
B|------10|-----------|----3---3----|--|---3-0---3-----|-------|
G|--------|2----------|1---------4-1|--|-0---------4-0-|---0-2-|
D|--------|------2----|-------------|--|---------------|-------|
A|--------|-----------|-------------|--|---------------|-------|
E|--------|-----------|-------------|--|---------------|-------|

E|-|--5-2---10-2--|----2-----2|--------3---3|-7-----------|----|
B|3|3-----3------3|--3-----3--|--0-3-0---0--|---0-----0-3-|----|
G|-|--------------|-----------|-------------|-----7-------|---3|
D|-|0-------------|4-----0----|2------------|-------------|-4--|
A|-|--------------|-----------|-------------|-2-----2-----|----|
E|-|--------------|-----------|-------------|-------------|----|

E|0---2----|9|--------2----|7---0-|---0-2-0-9-2-0-|---|---0-5-0|
B|------5--|-|--0-3-0---0-3|--3---|---------------|---|--------|
G|--3-----3|-|-------------|------|-3-------------|-3-|-2------|
D|---------|-|-------------|------|---------------|---|--------|
A|---------|-|2------------|------|---------------|---|--------|
E|---------|-|-------------|------|---------------|---|--------|

E|7---|--0-5---0-5|--2---2-------|-7-|-------3-------|-7-------|
B|--10|-----------|----3---3-0---|---|---3-0---3-----|-------3-|
G|----|2----------|1-----------1-|---|-0---------4-0-|---0-2---|
D|----|------2----|--------------|---|---------------|---------|
A|----|-----------|--------------|---|---------------|---------|
E|----|-----------|--------------|---|---------------|---------|

E|--5-2---10-2--|----2-----2|--------3---3|7----------|-----0--|
B|3-----3------3|--3-----3--|--0-3-0---0--|--0-----0-3|--------|
G|--------------|-----------|-------------|----7------|---3---3|
D|0-------------|4-----0----|2------------|-----------|-4------|
A|--------------|-----------|-------------|2-----2----|--------|
E|--------------|-----------|-------------|-----------|--------|

E|2----|9-|----2|----2-----2|-----2-|-----6-|-----0-|-----0----|
B|--5--|--|--3--|--3-----3--|---2---|---7---|---2---|---2-----2|
G|----3|--|4----|4-----4----|-3-----|-6-----|-2-----|-2-----2--|
D|-----|--|-----|-----------|-------|-------|-------|----------|
A|-----|--|-----|-----------|-------|-------|-------|----------|
E|-----|--|-----|-----------|-------|-------|-------|----------|

E|-0|-----|----0-----0|-----|-------------|-------|-----2-|----|
B|--|----0|--0-----0--|----3|-----3-----3-|-----3-|---3---|---8|
G|--|--1--|1-----1----|--4--|---4-----4---|---2---|-2-----|-9--|
D|--|2----|-----------|5----|-5-----5-----|-4-----|-------|----|
A|--|-----|-----------|-----|-------------|-------|-------|----|
E|--|-----|-----------|-----|-------------|-------|-------|----|

E|-7|----7-----7|----2|----6|------7-7-7-7-7-7-7|-------7------|
B|--|--8-----8--|--2--|--7--|----8---8-8-8-8-8-8|-----8-----8--|
G|--|9-----9----|3----|6----|--7-----7-7-7-7-7-7|---7-----7----|
D|--|-----------|-----|-----|5------------------|-5------------|
A|--|-----------|-----|-----|-------------------|--------------|
E|--|-----------|-----|-----|-------------------|--------------|

E|-7|-------5-5-5-5-5-5-5|------5-----5|------6-6-6-6-6-6-6|---|
B|--|-----7---7-7-7-7-7-7|----7-----7--|----7---7-7-7-7-7-7|---|
G|--|---7-----7-7-7-7-7-7|--7-----7----|--6-----6-6-6-6-6-6|--6|
D|--|-0------------------|0------------|4------------------|4--|
A|--|--------------------|-------------|-------------------|---|
E|--|--------------------|-------------|-------------------|---|

E|--6-----6|------7-7-7-7-7-7-7|------7-----7|------7-7-7-7-7-7|
B|7-----7--|----7---7-7-7-7-7-7|----7-----7--|----8---8-8-8-8-8|
G|----6----|--7-----7-7-7-7-7-7|--7-----7----|--7-----7-7-7-7-7|
D|---------|-------------------|-------------|5----------------|
A|---------|2------------------|2------------|-----------------|
E|---------|-------------------|-------------|-----------------|

E|-7|------7-----7|------5-5-5-5-5-5-5|------5-----5|-------7-7|
B|-8|----8-----8--|----7---7-7-7-7-7-7|----7-----7--|-----8---8|
G|-7|--7-----7----|--7-----7-7-7-7-7-7|--7-----7----|---9-----9|
D|--|5------------|0------------------|0------------|-2--------|
A|--|-------------|-------------------|-------------|----------|
E|--|-------------|-------------------|-------------|----------|

E|-7-7-7-7-7|------7-----7|------6-6-6-6-6-6-6|------6-----6|--|
B|-8-8-8-8-8|----8-----8--|----7---7-7-7-7-7-7|----7-----7--|--|
G|-9-9-9-9-9|--9-----9----|--6-----6-6-6-6-6-6|--6-----6----|--|
D|----------|2------------|4------------------|4------------|--|
A|----------|-------------|-------------------|-------------|-2|
E|----------|-------------|-------------------|-------------|--|

E|-------2----|7---0|--0-2-0-9-2-0|-|---0-5-0-7----|---0-5---0-|
B|-0-3-0---0-3|--3--|-------------|-|-----------10-|-----------|
G|------------|-----|3------------|3|-2------------|-2---------|
D|------------|-----|-------------|-|--------------|-------2---|
A|------------|-----|-------------|-|--------------|-----------|
E|------------|-----|-------------|-|--------------|-----------|

E|5|--2---2------|7|------3------|-7-------|---5-2---10-2---|--|
B|-|----3---3-0--|-|--3-0---3----|-------3-|-3-----3------3-|--|
G|-|1-----------1|-|0---------4-0|---0-2---|----------------|--|
D|-|-------------|-|-------------|---------|-0--------------|-4|
A|-|-------------|-|-------------|---------|----------------|--|
E|-|-------------|-|-------------|---------|----------------|--|

E|---2-----2|--------3---3|7----------|----0---2----|-9-|-----2|
B|-3-----3--|--0-3-0---0--|--0-----0-3|----------5--|---|---3--|
G|----------|-------------|----7------|--3---3-----3|---|-4----|
D|-----0----|2------------|-----------|4------------|---|------|
A|----------|-------------|2-----2----|-------------|---|------|
E|----------|-------------|-----------|-------------|---|------|

E|-----2-----2|----2|----6|-----0-|-----0-----0-|-------|-----0|
B|---3-----3--|--2--|--7--|---2---|---2-----2---|-----0-|---0--|
G|-4-----4----|3----|6----|-2-----|-2-----2-----|---1---|-1----|
D|------------|-----|-----|-------|-------------|-2-----|------|
A|------------|-----|-----|-------|-------------|-------|------|
E|------------|-----|-----|-------|-------------|-------|------|

E|----0|-----|------------|-------|-----2-|-----7-|-----7-----7|
B|--0--|----3|----3-----3-|-----3-|---3---|---8---|---8-----8--|
G|1----|--4--|--4-----4---|---2---|-2-----|-9-----|-9-----9----|
D|-----|5----|5-----5-----|-4-----|-------|-------|------------|
A|-----|-----|------------|-------|-------|-------|------------|
E|-----|-----|------------|-------|-------|-------|------------|

E|----2|----6|------7-7-7-7-7-7-7|------7-----7-|-------5-5-5-5|
B|--2--|--7--|----8---8-8-8-8-8-8|----8-----8---|-----7---7-7-7|
G|3----|6----|--7-----7-7-7-7-7-7|--7-----7-----|---7-----7-7-7|
D|-----|-----|5------------------|5-------------|-0------------|
A|-----|-----|-------------------|--------------|--------------|
E|-----|-----|-------------------|--------------|--------------|

E|5-5-5|------5-----5|------6-6-6-6-6-6-6|------6-----6-|------|
B|7-7-7|----7-----7--|----7---7-7-7-7-7-7|----7-----7---|-----7|
G|7-7-7|--7-----7----|--6-----6-6-6-6-6-6|--6-----6-----|---7--|
D|-----|0------------|4------------------|4-------------|------|
A|-----|-------------|-------------------|--------------|-2----|
E|-----|-------------|-------------------|--------------|------|

E|7-7-7-7-7-7-7|------7-----7|------7-7-7-7-7-7-7|------7-----7|
B|--7-7-7-7-7-7|----7-----7--|----8---8-8-8-8-8-8|----8-----8--|
G|--7-7-7-7-7-7|--7-----7----|--7-----7-7-7-7-7-7|--7-----7----|
D|-------------|-------------|5------------------|5------------|
A|-------------|2------------|-------------------|-------------|
E|-------------|-------------|-------------------|-------------|

E|------5-5-5-5-5-5-5|------5-----5|------7-7-7-7-7-7-7-|------|
B|----7---7-7-7-7-7-7|----7-----7--|----8---8-8-8-8-8-8-|-----8|
G|--7-----7-7-7-7-7-7|--7-----7----|--9-----9-9-9-9-9-9-|---9--|
D|0------------------|0------------|2-------------------|-2----|
A|-------------------|-------------|--------------------|------|
E|-------------------|-------------|--------------------|------|

E|7-----7|------6|---|-------7-------------|-7---0-|---0-2-0-9-|
B|----8--|----7--|---|-----7-------0-7---3-|---3---|-----------|
G|--9----|--6----|---|---7-----4-7-----4---|-------|-3---------|
D|-------|4------|---|---------------------|-------|-----------|
A|-------|-------|---|-2-------------------|-------|-----------|
E|-------|-------|---|---------------------|-------|-----------|

E|2-0|-|--0-5-0-7---|--0-5---0-5|---2---2-------|-7-|-------3--|
B|---|-|----------10|-----------|-----3---3-0---|---|---3-0---3|
G|---|3|2-----------|2----------|-1-----------1-|---|-0--------|
D|---|-|------------|------2----|---------------|---|----------|
A|---|-|------------|-----------|---------------|---|----------|
E|---|-|------------|-----------|---------------|---|----------|

E|----|-7-------|---5-2---10-2---|----2-----2|--------3---3|7--|
B|----|-------3-|-3-----3------3-|--3-----3--|--0-3-0---0--|--0|
G|4-0-|---0-2---|----------------|-----------|-------------|---|
D|----|---------|-0--------------|4-----0----|2------------|---|
A|----|---------|----------------|-----------|-------------|2--|
E|----|---------|----------------|-----------|-------------|---|

E|-------|----0---2----|9|-----2-|-----2-----2-|-----2-|-----6-|
B|----0-3|----------5--|-|---3---|---3-----3---|---2---|---7---|
G|7------|--3---3-----3|-|-4-----|-4-----4-----|-3-----|-6-----|
D|-------|4------------|-|-------|-------------|-------|-------|
A|--2----|-------------|-|-------|-------------|-------|-------|
E|-------|-------------|-|-------|-------------|-------|-------|

E|-----0|----0-----0|-----|----0-----0-|-------|-------------|-|
B|---2--|--2-----2--|----0|--0-----0---|-----3-|-----3-----3-|-|
G|-2----|2-----2----|--1--|1-----1-----|---4---|---4-----4---|-|
D|------|-----------|2----|------------|-5-----|-5-----5-----|4|
A|------|-----------|-----|------------|-------|-------------|-|
E|------|-----------|-----|------------|-------|-------------|-|

E|---|----2|----7|----7-----7-|-------6-|-6-6-|-------7-7-7-7-7|
B|--3|--3--|--8--|--8-----8---|-----7---|-7-7-|-----7---7-7-7-7|
G|2--|2----|9----|9-----9-----|---6-----|-6-6-|---7-----7-7-7-7|
D|---|-----|-----|------------|-4-------|-4-4-|----------------|
A|---|-----|-----|------------|---------|-----|-2--------------|
E|---|-----|-----|------------|---------|-----|----------------|

E|7-7|------7-----7|------6-6-6-6-6-6-6|------6-----6-|-------5|
B|7-7|----7-----7--|----7---7-7-7-7-7-7|----7-----7---|-----5--|
G|7-7|--7-----7----|--6-----6-6-6-6-6-6|--6-----6-----|---6----|
D|---|-------------|4------------------|4-------------|-7------|
A|---|2------------|-------------------|--------------|--------|
E|---|-------------|-------------------|--------------|--------|

E|5-5-5-5-5-5|------5-----5|------7-7-7-7-7-7-7-|-------7-----7|
B|5-5-5-5-5-5|----5-----5--|----9---9-9-9-9-9-9-|-----9-----9--|
G|6-6-6-6-6-6|--6-----6----|--7-----7-7-7-7-7-7-|---7-----7----|
D|-----------|7------------|2-------------------|-2------------|
A|-----------|-------------|--------------------|--------------|
E|-----------|-------------|--------------------|--------------|

E|------7-7-7-7-7-7-7|------7-----7|------5-5-5-5-5-5-5|------5|
B|----8---8-8-8-8-8-8|----8-----8--|----7---7-7-7-7-7-7|----7--|
G|--7-----7-7-7-7-7-7|--7-----7----|--7-----7-7-7-7-7-7|--7----|
D|5------------------|5------------|0------------------|0------|
A|-------------------|-------------|-------------------|-------|
E|-------------------|-------------|-------------------|-------|

E|----5|------7-7-7-7-7-7-7|------7-----7|-------6-6-6-6-6-6-6-|
B|--7--|----8---8-8-8-8-8-8|----8-----8--|-----7---7-7-7-7-7-7-|
G|7----|--9-----9-9-9-9-9-9|--9-----9----|---6-----6-6-6-6-6-6-|
D|-----|2------------------|2------------|-4-------------------|
A|-----|-------------------|-------------|---------------------|
E|-----|-------------------|-------------|---------------------|

E|------6-----6|------7-7-7-7-7-7-7|------7-----7|------6-6-6-6|
B|----7-----7--|----7---7-7-7-7-7-7|----7-----7--|----7---7-7-7|
G|--6-----6----|--7-----7-7-7-7-7-7|--7-----7----|--6-----6-6-6|
D|4------------|-------------------|-------------|4------------|
A|-------------|2------------------|2------------|-------------|
E|-------------|-------------------|-------------|-------------|

E|6-6-6|------6-----6|------5-5-5-5-5-5-5|------5-----5-|------|
B|7-7-7|----7-----7--|----5---5-5-5-5-5-5|----5-----5---|-----9|
G|6-6-6|--6-----6----|--6-----6-6-6-6-6-6|--6-----6-----|---7--|
D|-----|4------------|7------------------|7-------------|-2----|
A|-----|-------------|-------------------|--------------|------|
E|-----|-------------|-------------------|--------------|------|

E|7-7-7-7-7-7-7|------7-----7|------7-7-7-7-7-7-7|------7-----7|
B|--9-9-9-9-9-9|----9-----9--|----8---8-8-8-8-8-8|----8-----8--|
G|--7-7-7-7-7-7|--7-----7----|--7-----7-7-7-7-7-7|--7-----7----|
D|-------------|2------------|5------------------|5------------|
A|-------------|-------------|-------------------|-------------|
E|-------------|-------------|-------------------|-------------|

E|-------5-5-5-5-5-5-5-|------5-----5|------7-7-7-7-7-7-7|-----|
B|-----7---7-7-7-7-7-7-|----7-----7--|----8---8-8-8-8-8-8|----8|
G|---7-----7-7-7-7-7-7-|--7-----7----|--9-----9-9-9-9-9-9|--9--|
D|-0-------------------|0------------|2------------------|2----|
A|---------------------|-------------|-------------------|-----|
E|---------------------|-------------|-------------------|-----|

E|7-----7|------6-6-6-6-6-6-6|------6-----6|------7-7-7-7-7-7-7|
B|----8--|----7---7-7-7-7-7-7|----7-----7--|----7---7-7-7-7-7-7|
G|--9----|--6-----6-6-6-6-6-6|--6-----6----|--7-----7-7-7-7-7-7|
D|-------|4------------------|4------------|-------------------|
A|-------|-------------------|-------------|2------------------|
E|-------|-------------------|-------------|-------------------|

E|-------7-----7-|------6-6-6-6-6-6-6|------6-----6|------5-5-5|
B|-----7-----7---|----7---7-7-7-7-7-7|----7-----7--|----5---5-5|
G|---7-----7-----|--6-----6-6-6-6-6-6|--6-----6----|--6-----6-6|
D|---------------|4------------------|4------------|7----------|
A|-2-------------|-------------------|-------------|-----------|
E|---------------|-------------------|-------------|-----------|

E|5-5-5-5-|-------5-----5|------7-7-7-7-7-7-7|------7-----7|---|
B|5-5-5-5-|-----5-----5--|----9---9-9-9-9-9-9|----9-----9--|---|
G|6-6-6-6-|---6-----6----|--7-----7-7-7-7-7-7|--7-----7----|--7|
D|--------|-7------------|2------------------|2------------|5--|
A|--------|--------------|-------------------|-------------|---|
E|--------|--------------|-------------------|-------------|---|

E|--7-7-7-7-7-7-7|------7-----7|------5-5-5-5-5-5-5|------5----|
B|8---8-8-8-8-8-8|----8-----8--|----7---7-7-7-7-7-7|----7-----7|
G|----7-7-7-7-7-7|--7-----7----|--7-----7-7-7-7-7-7|--7-----7--|
D|---------------|5------------|0------------------|0----------| 

Eagles — Hotel California

 E ------|-------7--------------|-7---0-|---0-2-0-9-2-0-|---|---0-5-0-7
B ------|-----7----------7---3-|---3-------|---|----------
G ------|---7-----4----4---4---|-------|-3-------------|-3-|-2--------
D ------12---------|---|----------
A ------|-2--------------------|---|----------
E -----------------|---|----------

E ----|---0-5---0-5-|---2---2-------|-7-|-------3-------|-7-------|---
B -10---|-----3---3-0---|---|---3-0---3-----|-------3-|-3-
G ----|-2-----------|-1-----------1-|---|-0---------4-0-|---0-2---|---
D ----|-------2---------|-------|---------|-0-
A ----------|-------|---------|---
E ----------|-------|---------|---

E 5-2---10-2---2-|---------3---3-|-7-----------|-----0---2
B ----3------3-|---3-----3---|---0-3-0---0---|---0-----0-3-|----------
G -------------------|-----7-------|---3---3--
D -------------|-4-----0-----|-2---------------|-4--------
A -------------------|-2-----2-----|----------
E ---------------------|----------

E -----|-9-7-------------|-7---0-|---0-2-0-9-2-0-|---|---0
B -5---|---|---------7---------7-----|---3-------|---|----
G ---3-|---|-------7-----4-7-4---4-7-|-------|-3-------------|-3-|-2--
D -----|---|-----9-------------------|---|----
A -----|---|---9---------------------|---|----
E -----|---|-7-----------------------|---|----

E -5-0-7----|---0-5---0-5-|---2---2-------|-7-|-------3-------|-7-----
B -------10---|-----3---3-----|---|---3-0---3-----|-------
G ----------|-2-----------|-1---------4-1-|---|-0---------4-0-|---0-2-
D ----------|-------2---------|-------|-------
A ----------------|-------|-------
E ----------------|-------|-------

E --|---5-2---10-2---2-|---------3---3-|-7-----------|----
B 3-|-3-----3------3-|---3-----3---|---0-3-0---0---|---0-----0-3-|----
G -------------|-----7-------|---3
D --|-0--------------|-4-----0-----|-2---------------|-4--
A -------------|-2-----2-----|----
E ---------------|----

E -0---2-----|-9-|---------2-----|-7---0-|---0-2-0-9-2-0-|---|---0-5-0
B -------5---|---|---0-3-0---0-3-|---3-------|---|--------
G ---3-----3-|-------|-------|-3-------------|-3-|-2------
D -----------|-------|---|--------
A -----------|---|-2-------------|---|--------
E -----------|-------|---|--------

E -7----|---0-5---0-5-|---2---2-------|-7-|-------3-------|-7-------|-
B ---10---|-----3---3-0---|---|---3-0---3-----|-------3-|-
G ------|-2-----------|-1-----------1-|---|-0---------4-0-|---0-2---|-
D ------|-------2---------|-------|---------|-
A ------------|-------|---------|-
E ------------|-------|---------|-

E --5-2---10-2---2-|---------3---3-|-7-----------|-----0--
B 3-----3------3-|---3-----3---|---0-3-0---0---|---0-----0-3-|--------
G ---------------------|-----7-------|---3---3
D 0--------------|-4-----0-----|-2---------------|-4------
A ---------------------|-2-----2-----|--------
E -----------------------|--------

E -2-----|-9-|-----2-2-|-----2-|-----6-|-----0-|-----0----
B ---5---|---|---3---|---3-----3---|---2---|---7---|---2---|---2-----2
G -----3-|---|-4-----|-4-----4-----|-3-----|-6-----|-2-----|-2-----2--
D -------|---|---------|-------|-------|-------|----------
A -------|---|---------|-------|-------|-------|----------
E -------|---|---------|-------|-------|-------|----------

E -0-|-------|-----0-----0-|---------|-------|-----2-|----
B ---|-----0-|---0-----0---|-----3-|-----3-----3-|-----3-|---3---|---8
G ---|---1---|-1-----1-----|---4---|---4-----4---|---2---|-2-----|-9--
D ---|-2-------|-5-----|-5-----5-----|-4-----|-------|----
A ---|---------|---------|-------|-------|----
E ---|---------|---------|-------|-------|----

E -7-|-----7-----7-|-----2-|-----6-|-------7-7-7-7-7-7-7-|-------7----
B ---|---8-----8---|---2---|---7---|-----8---8-8-8-8-8-8-|-----8-----8
G ---|-9-----9-----|-3-----|-6-----|---7-----7-7-7-7-7-7-|---7-----7--
D -----|-------|-------|-5-------------------|-5----------
A -----|--------------
E -----|--------------

E -7-|-------5-5-5-5-5-5-5-|-------5-----5-|-------6-6-6-6-6-6-6-|----
B ---|-----7---7-7-7-7-7-7-|-----7-----7---|-----7---7-7-7-7-7-7-|----
G ---|---7-----7-7-7-7-7-7-|---7-----7-----|---6-----6-6-6-6-6-6-|---6
D ---|-0-------------------|-0-------------|-4-------------------|-4--
A ---------------------------|----
E ---------------------------|----

E ---6-----6-|-------7-7-7-7-7-7-7-|-------7-----7-|-------7-7-7-7-7-7
B -7-----7---|-----7---7-7-7-7-7-7-|-----7-----7---|-----8---8-8-8-8-8
G -----6-----|---7-----7-7-7-7-7-7-|---7-----7-----|---7-----7-7-7-7-7
D -------------------------|-5----------------
A -----------|-2-------------------|-2--------------------
E --------------------------------

E -7-|-------7-----7-|-------5-5-5-5-5-5-5-|-------5-----5-|-------7-7
B -8-|-----8-----8---|-----7---7-7-7-7-7-7-|-----7-----7---|-----8---8
G -7-|---7-----7-----|---7-----7-7-7-7-7-7-|---7-----7-----|---9-----9
D ---|-5-------------|-0-------------------|-0-------------|-2--------
A ---------------------|----------
E ---------------------|----------

E -7-7-7-7-7-|-------7-----7-|-------6-6-6-6-6-6-6-|-------6-----6-|--
B -8-8-8-8-8-|-----8-----8---|-----7---7-7-7-7-7-7-|-----7-----7---|--
G -9-9-9-9-9-|---9-----9-----|---6-----6-6-6-6-6-6-|---6-----6-----|--
D -----------|-2-------------|-4-------------------|-4-------------|--
A -----------------------------|-2
E -----------------------------|--

E -------2-----|-7---0-|---0-2-0-9-2-0-|---|---0-5-0-7----|---0-5---0-
B -0-3-0---0-3-|---3-------|---10-
G -------------|-------|-3-------------|-3-|-2------------|-2---------
D -------------|------|-------2---
A -------------|------
E -------------|------

E 5-|---2---2-------|-7-|-------3-------|-7-------|---5-2---10-2---|--
B --|-----3---3-0---|---|---3-0---3-----|-------3-|-3-----3------3-|--
G --|-1-----------1-|---|-0---------4-0-|---0-2--------|--
D ------|-------|---------|-0--------------|-4
A ------|----------|--
E ------|----------|--

E ---2-----2-|---------3---3-|-7-----------|-----0---2-----|-9-|-----2
B -3-----3---|---0-3-0---0---|---0-----0-3-5---|---|---3--
G ---------------|-----7-------|---3---3-----3-|---|-4----
D -----0-----|-2---------------|-4-------------|---|------
A ---------------|-2-----2---------|---|------
E ---------------------|---|------

E -2-|-----2-|-----6-|-----0-|-----0-----0-|-------|-----0
B -|---3-----3---|---2---|---7---|---2---|---2-----2---|-----0-|---0--
G -|-4-----4-----|-3-----|-6-----|-2-----|-2-----2-----|---1---|-1----
D ---|-------|-------|---------|-2-----|------
A ---|-------|-------|---------|-------|------
E ---|-------|-------|---------|-------|------

E -----0-|---------|-------|-----2-|-----7-|-----7-----7-|
B ---0---|-----3-|-----3-----3-|-----3-|---3---|---8---|---8-----8---|
G -1-----|---4---|---4-----4---|---2---|-2-----|-9-----|-9-----9-----|
D -------|-5-----|-5-----5-----|-4-----|-------|---------|
A -------|---------|-------|-------|---------|
E -------|---------|-------|-------|---------|

E -----2-|-----6-|-------7-7-7-7-7-7-7-|-------7-----7-|-------5-5-5-5
B ---2---|---7---|-----8---8-8-8-8-8-8-|-----8-----8---|-----7---7-7-7
G -3-----|-6-----|---7-----7-7-7-7-7-7-|---7-----7-----|---7-----7-7-7
D -------|-------|-5-------------------|-5-------------|-0------------
A --------------------
E --------------------

E -5-5-5-|-------5-----5-|-------6-6-6-6-6-6-6-|-------6-----6-|------
B -7-7-7-|-----7-----7---|-----7---7-7-7-7-7-7-|-----7-----7---|-----7
G -7-7-7-|---7-----7-----|---6-----6-6-6-6-6-6-|---6-----6-----|---7--
D -------|-0-------------|-4-------------------|-4-------------|------
A -------------------------|-2----
E -------------------------|------

E -7-7-7-7-7-7-7-|-------7-----7-|-------7-7-7-7-7-7-7-|-------7-----7
B ---7-7-7-7-7-7-|-----7-----7---|-----8---8-8-8-8-8-8-|-----8-----8--
G ---7-7-7-7-7-7-|---7-----7-----|---7-----7-7-7-7-7-7-|---7-----7----
D -------------------|-5-------------------|-5------------
A ---------------|-2--------------------------
E --------------------------------

E -|-------5-5-5-5-5-5-5-|-------5-----5-|-------7-7-7-7-7-7-7-|------
B -|-----7---7-7-7-7-7-7-|-----7-----7---|-----8---8-8-8-8-8-8-|-----8
G -|---7-----7-7-7-7-7-7-|---7-----7-----|---9-----9-9-9-9-9-9-|---9--
D -|-0-------------------|-0-------------|-2-------------------|-2----
A -------------------------|------
E -------------------------|------

E -7-----7-|-------6-|------|-------7-------------|-7---0-|---0-2-0-9-
B -----8---|-----7---|------|-----7-------0-7---3-|---3---
G ---9-----|---6-----|------|---7-----4-7-----4---|-------|-3---------
D ---------|-4------------|-------
A ---------|---------|------|-2-------------------|-------
E ---------|--------------|-------

E 2-0-|---|---0-5-0-7----|---0-5---0-5-|---2---2-------|-7-|-------3--
B ----|---10---|-----3---3-0---|---|---3-0---3
G ----|-3-|-2------------|-2-----------|-1-----------1-|---|-0--------
D ----|------|-------2---------|---|----------
A -----|---|----------
E -----|---|----------

E -----|-7-------|---5-2---10-2---2-|---------3---3-|-7---
B -----|-------3-|-3-----3------3-|---3-----3---|---0-3-0---0---|---0-
G -4-0-|---0-2--------------|-----
D -----|---------|-0--------------|-4-----0-----|-2-------------|-----
A --------------|-2---
E --------------|-----

E --------|-----0---2-----|-9-|-----2-2-|-----2-|-----6-|-
B ----0-3-5---|---|---3---|---3-----3---|---2---|---7---|-
G 7-------|---3---3-----3-|---|-4-----|-4-----4-----|-3-----|-6-----|-
D --------|-4-------------|---|---------|-------|-------|-
A --2---------|---|---------|-------|-------|-
E ------------|---|---------|-------|-------|-

E ----0-|-----0-----0-|-------|-----0-----0-|---------|---
B --2---|---2-----2---|-----0-|---0-----0---|-----3-|-----3-----3-|---
G 2-----|-2-----2-----|---1---|-1-----1-----|---4---|---4-----4---|---
D --------|-2-------|-5-----|-5-----5-----|-4-
A --------|---------|---------|---
E --------|---------|---------|---

E ----|-----2-|-----7-|-----7-----7-|-------6-|-6-6-|-------7-7-7-7-7-
B --3-|---3---|---8---|---8-----8---|-----7---|-7-7-|-----7---7-7-7-7-
G 2---|-2-----|-9-----|-9-----9-----|---6-----|-6-6-|---7-----7-7-7-7-
D ----|-------|---------|-4-------|-4-4-------
A ----|-------|---------|---------|-----|-2---------------
E ----|-------|---------|---------

E 7-7-|-------7-----7-|-------6-6-6-6-6-6-6-|-------6-----6-|-------5-
B 7-7-|-----7-----7---|-----7---7-7-7-7-7-7-|-----7-----7---|-----5---
G 7-7-|---7-----7-----|---6-----6-6-6-6-6-6-|---6-----6-----|---6-----
D --------|-4-------------------|-4-------------|-7-------
A ----|-2---------------------------|---------
E ----------------------|---------

E 5-5-5-5-5-5-|-------5-----5-|-------7-7-7-7-7-7-7-|-------7-----7-|-
B 5-5-5-5-5-5-|-----5-----5---|-----9---9-9-9-9-9-9-|-----9-----9---|-
G 6-6-6-6-6-6-|---6-----6-----|---7-----7-7-7-7-7-7-|---7-----7-----|-
D ------------|-7-------------|-2-------------------|-2-------------|-
A ------------------------------|-
E ------------------------------|-

E ------7-7-7-7-7-7-7-|-------7-----7-|-------5-5-5-5-5-5-5-|-------5-
B ----8---8-8-8-8-8-8-|-----8-----8---|-----7---7-7-7-7-7-7-|-----7---
G --7-----7-7-7-7-7-7-|---7-----7-----|---7-----7-7-7-7-7-7-|---7-----
D 5-------------------|-5-------------|-0-------------------|-0-------
A ----------------------------------|---------
E ----------------------------------|---------

E ----5-|-------7-7-7-7-7-7-7-|-------7-----7-|-------6-6-6-6-6-6-6-|-
B --7---|-----8---8-8-8-8-8-8-|-----8-----8---|-----7---7-7-7-7-7-7-|-
G 7-----|---9-----9-9-9-9-9-9-|---9-----9-----|---6-----6-6-6-6-6-6-|-
D ------|-2-------------------|-2-------------|-4-------------------|-
A ------------------------------|-
E ------------------------------|-

E ------6-----6-|-------7-7-7-7-7-7-7-|-------7-----7-|-------6-6-6-6-
B ----7-----7---|-----7---7-7-7-7-7-7-|-----7-----7---|-----7---7-7-7-
G --6-----6-----|---7-----7-7-7-7-7-7-|---7-----7-----|---6-----6-6-6-
D 4---------------------------|-4-------------
A --------------|-2-------------------|-2-----------------
E --------------------------------

E 6-6-6-|-------6-----6-|-------5-5-5-5-5-5-5-|-------5-----5-|-------
B 7-7-7-|-----7-----7---|-----5---5-5-5-5-5-5-|-----5-----5---|-----9-
G 6-6-6-|---6-----6-----|---6-----6-6-6-6-6-6-|---6-----6-----|---7---
D ------|-4-------------|-7-------------------|-7-------------|-2-----
A ------------------------|-------
E ------------------------|-------

E 7-7-7-7-7-7-7-|-------7-----7-|-------7-7-7-7-7-7-7-|-------7-----7-
B --9-9-9-9-9-9-|-----9-----9---|-----8---8-8-8-8-8-8-|-----8-----8---
G --7-7-7-7-7-7-|---7-----7-----|---7-----7-7-7-7-7-7-|---7-----7-----
D --------------|-2-------------|-5-------------------|-5-------------
A --------------------------------
E --------------------------------

E |-------5-5-5-5-5-5-5-|-------5-----5-|-------7-7-7-7-7-7-7-|-------
B |-----7---7-7-7-7-7-7-|-----7-----7---|-----8---8-8-8-8-8-8-|-----8-
G |---7-----7-7-7-7-7-7-|---7-----7-----|---9-----9-9-9-9-9-9-|---9---
D |-0-------------------|-0-------------|-2-------------------|-2-----
A ------------------------|-------
E ------------------------|-------

E 7-----7-|-------6-6-6-6-6-6-6-|-------6-----6-|-------7-7-7-7-7-7-7-
B ----8---|-----7---7-7-7-7-7-7-|-----7-----7---|-----7---7-7-7-7-7-7-
G --9-----|---6-----6-6-6-6-6-6-|---6-----6-----|---7-----7-7-7-7-7-7-
D --------|-4-------------------|-4-----------------------
A ----------------------|-2-------------------
E --------------------------------

E |-------7-----7-|-------6-6-6-6-6-6-6-|-------6-----6-|-------5-5-5-
B |-----7-----7---|-----7---7-7-7-7-7-7-|-----7-----7---|-----5---5-5-
G |---7-----7-----|---6-----6-6-6-6-6-6-|---6-----6-----|---6-----6-6-
D ----|-4-------------------|-4-------------|-7-----------
A |-2-----------------------------
E --------------------

E 5-5-5-5-|-------5-----5-|-------7-7-7-7-7-7-7-|-------7-----7-|-----
B 5-5-5-5-|-----5-----5---|-----9---9-9-9-9-9-9-|-----9-----9---|-----
G 6-6-6-6-|---6-----6-----|---7-----7-7-7-7-7-7-|---7-----7-----|---7-
D --------|-7-------------|-2-------------------|-2-------------|-5---
A --------------------------|-----
E --------------------------|-----

E --7-7-7-7-7-7-7-|-------7-----7-|-------5-5-5-5-5-5-5-|-------5-----
B 8---8-8-8-8-8-8-|-----8-----8---|-----7---7-7-7-7-7-7-|-----7-----7-
G ----7-7-7-7-7-7-|---7-----7-----|---7-----7-7-7-7-7-7-|---7-----7---
D ----------------|-5-------------|-0-------------------|-0-----------
A --------------------------------
E --------------------------------

E 5-|-------7-7-7-7-7-7-7-|-------7-----7-|-------6-6-6-6-6-6-6-|-----
B --|-----8---8-8-8-8-8-8-|-----8-----8---|-----7---7-7-7-7-7-7-|-----
G --|---9-----9-9-9-9-9-9-|---9-----9-----|---6-----6-6-6-6-6-6-|---6-
D --|-2-------------------|-2-------------|-4-------------------|-4---
A --------------------------|-----
E --------------------------|-----

E --6-----6-|-------7-7-7-7-7-7-7-|-------7-----7-|-------6-6-6-6-6-6-
B 7-----7---|-----7---7-7-7-7-7-7-|-----7-----7---|-----7---7-7-7-7-7-
G ----6-----|---7-----7-7-7-7-7-7-|---7-----7-----|---6-----6-6-6-6-6-
D ------------------------|-4-----------------
A ----------|-2-------------------|-2---------------------
E --------------------------------

E 6-|-------6-----6-|-------5-5-5-5-5-5-5-|-------5-----5-|-------7-7-
B 7-|-----7-----7---|-----5---5-5-5-5-5-5-|-----5-----5---|-----9---9-
G 6-|---6-----6-----|---6-----6-6-6-6-6-6-|---6-----6-----|---7-----7-
D --|-4-------------|-7-------------------|-7-------------|-2---------
A --------------------
E --------------------

E 7-7-7-7-7-|-------7-----7-|-------7-7-7-7-7-7-7-|-------7-----7-|---
B 9-9-9-9-9-|-----9-----9---|-----8---8-8-8-8-8-8-|-----8-----8---|---
G 7-7-7-7-7-|---7-----7-----|---7-----7-7-7-7-7-7-|---7-----7-----|---
D ----------|-2-------------|-5-------------------|-5-------------|-0-
A ----------------------------|---
E ----------------------------|---

E ----5-5-5-5-5-5-5-|-------5-----5-|-------7-7-7-7-7-7-7-|-------7---
B --7---7-7-7-7-7-7-|-----7-----7---|-----8---8-8-8-8-8-8-|-----8-----
G 7-----7-7-7-7-7-7-|---7-----7-----|---9-----9-9-9-9-9-9-|---9-----9-
D ------------------|-0-------------|-2-------------------|-2---------
A --------------------------------
E --------------------------------

E --7-|-------6-6-6-6-6-6-6-|-------6-----6-|-------7-7-7-7-7-7-7-|---
B 8---|-----7---7-7-7-7-7-7-|-----7-----7---|-----7---7-7-7-7-7-7-|---
G ----|---6-----6-6-6-6-6-6-|---6-----6-----|---7-----7-7-7-7-7-7-|---
D ----|-4-------------------|-4-----------------------|---
A ------------------|-2-------------------|-2-
E ----------------------------|---

E ----7-----7-|-------6-6-6-6-6-6-6-|-------6-----6-|-------5-5-5-5-5-
B --7-----7---|-----7---7-7-7-7-7-7-|-----7-----7---|-----5---5-5-5-5-
G 7-----7-----|---6-----6-6-6-6-6-6-|---6-----6-----|---6-----6-6-6-6-
D ------------|-4-------------------|-4-------------|-7---------------
A --------------------------------
E --------------------------------

E 5-5-|-------5-----5-|-------7-7-7-7-7-7-7-|-------7-----7-|-------7-
B 5-5-|-----5-----5---|-----9---9-9-9-9-9-9-|-----9-----9---|-----8---
G 6-6-|---6-----6-----|---7-----7-7-7-7-7-7-|---7-----7-----|---7-----
D ----|-7-------------|-2-------------------|-2-------------|-5-------
A ----------------------|---------
E ----------------------|---------

E 7-7-7-7-7-7-|-------7-----7-|-------5-5-5-5-5-5-5-|-------5-----5-|-
B 8-8-8-8-8-8-|-----8-----8---|-----7---7-7-7-7-7-7-|-----7-----7---|-
G 7-7-7-7-7-7-|---7-----7-----|---7-----7-7-7-7-7-7-|---7-----7-----|-
D ------------|-5-------------|-0-------------------|-0-------------|-
A ------------------------------|-
E ------------------------------|-

E ------7-7-7-7-7-7-7-|
B ----8---8-8-8-8-8-8-|
G --9-----9-9-9-9-9-9-|
D 2-------------------|
A --------------------|
E --------------------|
 
Аккорд EАккорд BАккорд GАккорд DАккорд A

Eagles — Hotel California

 hotel california by eagles
i'm not so sure about this,but it sounds good on an acoustic.HIDUP ROCK!

e---------------------------------------------------------
b---------3-------------------------2---------------------
g-----4-----4-----------3-------2-----2------------1------
d---4---4-----4-----4---------2---2-----2------2----------
a-2---------------4---4----0-----------------2---2--------
E---------------2-------------------------0----------------

e--------------------------2------------------------------
b----------------------3----------------------------------
g-----------0--------2---2------------1--------------3----
d-------0------0---0--------------2-----2--------4--------
a-----2---2------2--------------2---2-----2----4---4------
E--3--------------------------0-------------2-------------

thats it.i don know about the timing, so thats your problem!
HAHAHAHAHAHAHAHAAH!!