Портал для гитаристов
gtars.ru

Eagles — The Long Run (2 вариант)

                                       1.
||------------------|-----------------|-----------------|-------------------||
||о-----------------|-------------3---|-3-3-0---3---0---|-3-3--------------о||
||о-3-3-0---3---0---|-3-3-0---3-3---3-|-------3---3---3-|-----0-0-1-1-2-2--о||
||--------3---3---3-|-------3---------|-----------------|-------------------||


 2.
|-----2--3--4-5-||------------------|-----------------|------------------|
|-3-3-----------||о-----------------|-------------3---|-3-3-0---3---0----|
|---------------||о-3-3-0---3---0---|-3-3-0---3-3---3-|-------3---3---3--|
|---------------||--------3---3---3-|-------3---------|------------------|

|-----------------|-----------------|-----------------|------------------|
|-3-3-------------|-----------------|-------------3---|-3-3-0---3---0----|
|-----0-0-1-1-2-2-|-3-3-0---3---0---|-3-3-0---3-3---3-|-------3---3---3--|
|-----------------|-------3---3---3-|-------3---------|------------------|


|-----------------|-----------------|-----------------|------------------|
|-3-3-0---3-------|-----------------|-----------------|------------------|
|-------3---3-----|-----------------|-----------------|------------------|
|-------------3-5-|-5-5-5-5-5-5-5-5-|-5-5-5-5-5-5-5-0-|-1-1-1-1-1-1-1-1--|


|-----------------|-----------------|-----------------|------------------|
|-----------------|-----------------|-------------3---|-3-3-0---3---0----|
|-----0-0-1-1-2-2-|-3-3-0---3---0---|-3-3-0---3-3---3-|-------3---3---3--|
|-1-1-------------|-------3---3---3-|-------3---------|------------------|

|-----------------|-----------------|-----------------|------------------|
|-3-3-------------|-----------------|-------------3---|-3-3-0---3---0----|
|-----0-0-1-1-2-2-|-3-3-0---3---0---|-3-3-0---3-3---3-|-------3---3---3--|
|-----------------|-------3---3---3-|-------3---------|------------------|


|-----------------|-----------------|-----------------|------------------|
|-3-3-0---3-------|-----------------|-----------------|------------------|
|-------3---3-----|-----------------|-----------------|------------------|
|-------------3-5-|-5-5-5-5-5-5-5-5-|-5-5-5-5-5-5-5-0-|-1-1-1-1-1-1-1-1--|


                                    1.
|-----------------|-----------------|-----------------|------------------|
|-----------------|-------------0---|-3-3-------------|------------------|
|-----0-0-1-1-2-2-|-3-3-0---3-3---3-|-----0-0-1-1-2-2-|-3-3-0---3-3-0----|
|-1-1-------------|-------0---------|-----------------|-------3-------3--|

         2.
|--------------||-----------------|--------------|------------------|
|-------------о||-------------3---|-3-3-----0----|-------------0----|
|-------------о||-3-3-0---3-3---3-|------1-----4-|-3-3-0---3-3---3--|
|--3-3-3-3-----||-------3---------|--------------|-------0----------|

|-----------------|-----------------|-------------||-------------------|
|-3-3-------------|-----------------|-------------||о------------------|
|-----0-0-1-1-2-2-|-3-3-0---3-3-0---|-------------||о-3-3-0---3---0----|
|-----------------|-------3-------3-|--3-3-3-3----||--------3---3---3--|


                        1.           2.
|-----------------|-----------------|------------------||----------------|
|-------------3---|-3-3-0---3---0---|-3-3-------------о||-3-3------------|
|-3-3-0---3-3---3-|-------3---3---3-|-----0-0-1-1-2-2-о||-----0--1--2-3--|
|-------3---------|-----------------|------------------||----------------|


||------------------|-----------------|-----------------|-------------------||
||о-------------3---|-3-3-0---3---0---|-3-3-------------|-3-3--------------о||
||о-3-3-0---3-3---3-|-------3---3---3-|-----0-0-1-1-2-2-|-----0-0-1-1-2-2--о||
||--------3---------|-----------------|-----------------|-------------------||
  repeat and fade