Портал для гитаристов
gtars.ru

Earle Steve — My Baby Worships Me

 Steve Earle
My Baby Worships Me
From The Album 'Early Tracks'
Standard tuning
Tabbed by the biggest steve earle fan ever.

e-----------------------------------------
b-----------------------------------------
g-----------------------------------------
d---------------------------2-4-2-2-4-2---
a--------0--3--0-----0------0-0-0-0-0-0---
E-0---3-----------3-----------------------
repeat that twice and then

e----------------------------------------
b----------------------------------------
g----------------------------------------
d----------------------------------------
a--------0--3--0----0----2-4-2-2-4-2-----
E-0---3-----------3------0-0-0-0-0-0-----

Thats basically it just make sure you bend the three's and play the
chords in a status quo kinda way.
i'm quite sure it's correct.When it comes to steve Earle i'm never wrong.