Портал для гитаристов
gtars.ru

Early November — All We Ever Needed

 -------------------------------------------------------------------------------
			     All we ever needed - Early November
-------------------------------------------------------------------------------
Tabbed by: Colbuddy
Email: Colinawthnowena@netscape.net

Tuning: Drop d

Opening
e|---------------------------------------------------------------------------|
B|---------------------------------------------------------------------------|
G|-8---10--13-----8---10--13-------------------------------------------------|
D|-8---10--13-----8---10--13-------------------------------------------------|
A|-6---8---11-----6---8---11-------------------------------------------------|
D|---------------------------------------------------------------------------|

Verse
Tonight is.....
repeat until chorus

e|---------------------------------------------------------------------------|
B|---------------------------------------------------------------------------|
G|-----8-------8------8-------8-------8-------8-------8-------8--------------|
D|---8---8---8---8--8---8---8---8---8---8---8---8---8---8---8---8------------|
A|-6-------6-----------------------------------------------------------------|
D|----------------8-------8-------6-------6-------6-------6------------------|


Chrous
All we ever wanted was.....
e|---------------------------------------------------------------------------|
B|---------------------------------------------------------------------------|
G|-8---10--13-----8---10--13-------------------------------------------------|
D|-8---10--13-----8---10--13-------------------------------------------------|
A|-6---8---11-----6---8---11-------------------------------------------------|
D|---------------------------------------------------------------------------|

Just repeat the verse then repeat the chorus twice with a pause between them.

Any corrections or feedback, e-mail me at colinawthnowena@netscape.net


| /  slide up
|   slide down
| h  hammer-on
| p  pull-off
| ~  vibrato
| +  harmonic
| x  Mute note
=============================================================================== 

Early November — All We Ever Needed

 The Early November
All We Ever Needed

intro
g--------------------------------------------|
d--------------------------------------------|
a----6666666-8888888/------------------------|
e---------------------4444444-66666668-------|

g----------------------------|
d-------5h6------------------|
a---6--------6---------------|  x2
e--------------64------------|

verse 1
no bass in first part of verse
g-------------------------------------------------------------------|
d-------------------------------------------------------------------|
a-666666666---------------------------------------------------------|
e-----------66666666-444444444444444--------------------------------|

second time through pause for a beat or 2

chorus 1
g---------------------------------------------------------------|
d---------------------------------------------------------------|
a----6666666-8888888/-------------------------------------------|
e---------------------4444444-66666668--------------------------|
end of chorus thingy
g---------------------------------------------|
d---------------------------------------------|
a--66666666666--------------------------------|
e-------------4444668888----------------------|

second part of intro

verse 2
variation 1
g--------------------|
d--------------------|
a-6------------------|
e---6-4---4/0--------|
variation 2
g----------------------------------------------|
d----------------------------------------------|
a-6666666--------------------------------------|
e---------6666666444444444444------------------|

variation 1
then variation2 twice
then variation 1

chorus
chorus ending thingy
chorus

chorus ending the second time 😛

g--------------|
d--------------|
a--------------|
e---6-8-6------|
chorus some more

outro

g-----------------------------|
d------5h6--------------------|
a---6--------6-----------6----|
e---------------6-4-6-4-------|