Портал для гитаристов
gtars.ru

Early November — I Want To Hear You Sad

 -------------------------------------------------------------------------------
	     I want to hear you sad - Early November
-------------------------------------------------------------------------------
Tabbed by: Colbuddy
Email: Colinwthnowena@netscape.net

Tuning: drop D


OPENING
e|---------------------------------------------------------------------------|
B|---------------------------------------------------------------------------|
G|----------------6------------------6-------------------6-----------------6-|
D|---6---6---6-----------6---6---6-----------6---6---6---------6---6---6-----|
A|---------------------------------------------------------------------------|
D|-4---4---4---4-------4---4---4---4------/6---6---6---6-----6---6---6---6---|

VERSE 1

These eyes......
e|---------------------------------------------------------------------------|
B|---------------------------------------------------------------------------|
G|----------------6------------------6-------------------6-----------------6-|
D|---6---6---6-----------6---6---6-----------6---6---6---------6---6---6-----|
A|---------------------------------------------------------------------------|
D|-4---4---4---4-------4---4---4---4------/6---6---6---6-----6---6---6---6---|

We're Waiting......
e|---------------------------------------------------------------------------|
B|---------------------------------------------------------------------------|
G|-------5-------5----------5-------5-----------5------5-----------5-------5-|
D|---6-------6----------6-------6-----------6-------6----------6-------6-----|
A|---------------------------------------------------------------------------|
D|-4---4---4---4------4---4---4---4------/6---6---6---6------6---6---6---6---|

For sure........
e|---------------------------------------------------------------------------|
B|---------------------------------------------------------------------------|
G|---------------------------------------------------------------------------|
D|-11-4---------------------------------------------------------------------|
A|-11-4---------------------------------------------------------------------|
D|-11-4---------------------------------------------------------------------|
   (Slide slowly)

Chorus
For All Of This......
e|---------------------------------------------------------------------------|
B|---------------------------------------------------------------------------|
G|-6-6--666-6-6--6-6--666-6-6------------------------------------------------|
D|-6-6--666-6-6--6-6--666-6-6----4-4--444-4-4--4-4--444-4-4-----6-6--666-6-6-|
A|-4-4--444-4-4--4-4--444-4-4----4-4--444-4-4--4-4--444-4-4-----6-6--666-6-6-|
D|-------------------------------4-4--444-4-4--4-4--444-4-4-----6-6--666-6-6-|

e|---------------------------------------------------------------------------|
B|---------------------------------------------------------------------------|
G|---------------------------------------------------------------------------|
D|-6-6--666-6-6----4-4--444-4-4--4-4--444-4-4--------------------------------|
A|-6-6--666-6-6----4-4--444-4-4--4-4--444-4-4--------------------------------|
D|-6-6--666-6-6----4-4--444-4-4--4-4--444-4-4--------------------------------|

Verse 2
This Night......
e|---------------------------------------------------------------------------|
B|---------------------------------------------------------------------------|
G|----------------6------------------6-------------------6-----------------6-|
D|---6---6---6-----------6---6---6-----------6---6---6---------6---6---6-----|
A|---------------------------------------------------------------------------|
D|-4---4---4---4-------4---4---4---4------/6---6---6---6-----6---6---6---6---|

The Road......
e|---------------------------------------------------------------------------|
B|---------------------------------------------------------------------------|
G|-------5-------5----------5-------5-----------5------5-----------5-------5-|
D|---6-------6----------6-------6-----------6-------6----------6-------6-----|
A|---------------------------------------------------------------------------|
D|-4---4---4---4------4---4---4---4------/6---6---6---6------6---6---6---6---|

The Start.......
e|---------------------------------------------------------------------------|
B|---------------------------------------------------------------------------|
G|---------------------------------------------------------------------------|
D|-11-4---------------------------------------------------------------------|
A|-11-4---------------------------------------------------------------------|
D|-11-4---------------------------------------------------------------------|
   (Slide Slowly)

Chrous
For All Of This.......
e|---------------------------------------------------------------------------|
B|---------------------------------------------------------------------------|
G|-6-6--666-6-6--6-6--666-6-6------------------------------------------------|
D|-6-6--666-6-6--6-6--666-6-6----4-4--444-4-4--4-4--444-4-4-----6-6--666-6-6-|
A|-4-4--444-4-4--4-4--444-4-4----4-4--444-4-4--4-4--444-4-4-----6-6--666-6-6-|
D|-------------------------------4-4--444-4-4--4-4--444-4-4-----6-6--666-6-6-|

e|---------------------------------------------------------------------------|
B|---------------------------------------------------------------------------|
G|---------------------------------------------------------------------------|
D|-6-6--666-6-6----4-4--444-4-4--4-4--444-4-4--------------------------------|
A|-6-6--666-6-6----4-4--444-4-4--4-4--444-4-4--------------------------------|
D|-6-6--666-6-6----4-4--444-4-4--4-4--444-4-4--------------------------------|


Bridge
Every Day Goes.....
e|---------------------------------------------------------------------------|
B|---------------------------------------------------------------------------|
G|---------------------------------------------------------------------------|
D|-33-33-3333--44-44-4444----------------------------------------------------|
A|-33-33-3333--44-44-4444----------------------------------------------------|
D|-33-33-3333--44-44-4444----------------------------------------------------|

Chrous
For All Of This.......
e|---------------------------------------------------------------------------|
B|---------------------------------------------------------------------------|
G|-6-6--666-6-6--6-6--666-6-6------------------------------------------------|
D|-6-6--666-6-6--6-6--666-6-6----4-4--444-4-4--4-4--444-4-4-----6-6--666-6-6-|
A|-4-4--444-4-4--4-4--444-4-4----4-4--444-4-4--4-4--444-4-4-----6-6--666-6-6-|
D|-------------------------------4-4--444-4-4--4-4--444-4-4-----6-6--666-6-6-|

e|---------------------------------------------------------------------------|
B|---------------------------------------------------------------------------|
G|---------------------------------------------------------------------------|
D|-6-6--666-6-6----4-4--444-4-4--4-4--444-4-4--------------------------------|
A|-6-6--666-6-6----4-4--444-4-4--4-4--444-4-4--------------------------------|
D|-6-6--666-6-6----4-4--444-4-4--4-4--444-4-4--------------------------------|

| /  slide up
|   slide down
| h  hammer-on
| p  pull-off
| ~  vibrato
| +  harmonic
| x  Mute note

Any Corrections or feedback, e-mail me at colinawthnowena@netscape.net 
Аккорд D

Early November — I Want To Hear You Sad

 Early November
I want to hear you sad
By Kyle Woodward

Intro uses hermonics

e|-------------------------------------------------------------------| 
B|-------------------------------------------------------------------| 
G|-------------------------------------------------------------------| 
D|--------------------------(5)-----------------------------(5)------| 
A|-----(5)---(5)-----(5)----------------(5)---(5)-----(5)------------| 
D|3--------3-------3-----3---------3--------3-------3-----3----------| 

e|-------------------------------------------------------------------| 
B|-------------------------------------------------------------------| 
G|-------------------------------------------------------------------| 
D|--------------------------(5)-----------------------------(5)------| 
A|-----(5)---(5)-----(5)----------------(5)---(5)-----(5)------------| 
D|5--------5-------5-----5---------5--------5-------5-----5----------|

Intro guitar 2
e|-------------------------------------------------------------------| 
B|-------------------------------------------------------------------| 
G|---13---11-10--8---------------------------------------------------| 
D|---x----x--x---x---------------------------------------------------| 
A|---11---9--8---6---------------------------------------------------| 
D|-------------------------------------------------------------------|

Chorus
e|-------------------------------------------------------------------| 
B|-------------------------------------------------------------------| 
G|---7777777777777---------------------------------------------------| 
D|---7777777777777-----555555555555----777777777777---555555555555---| 
A|---5555555555555-----555555555555----777777777777---555555555555---| 
D|---------------------555555555555----777777777777---555555555555---| 

Verse x2

Break down
e|-------------------------------------------------------------------| 
B|-------------------------------------------------------------------| 
G|-------------------------------------------------------------------| 
D|---444444--5555555-------------------------------------------------| 
A|---444444--5555555-------------------------------------------------| 
D|---444444--5555555-------------------------------------------------|

Chorus x 2

Thats the whole song about 99% correct