Портал для гитаристов
gtars.ru

Early November — Sunday Drive

 Early November - Sunday Drive

verse
e-------------------------------------------------------------|
B-------------------------------------------------------------|
G--7-----7----------------------------------------------------|
D--7-----7----------------------------------------------------|
A--5(8)--5(8)-------------------------------------------------|
D--------5----------------------------------------------------|

chorus
e----------------------------------------------------|
B----------------------------------------------------|
G--7-----7-----7-------------------------------------|
D--7-----7-----7-------------------------------------|
A--5-(8)-7-(8)-5-------------------------------------|
D--------------5-(8)---------------------------------|

end
e------------------------------------------------------------------|
B------------------------------------------------------------------|
G--7------7--------------------------------------------------------|
D--7------7------9------9------------------------------------------|
A--5------x------9------9------------------------------------------|
D--5-(8)--7-(8)--9-(8)--11-(8)-------------------------------------| 

Early November — Sunday Drive

 Early November - Sunday Drive
CD: For all of this


this is a great song by a great band, alot of people say that you have to tune to
dropped D to play this (everything tuned a half step down and the 6th string tuned to D)
but you dont, just tune the sixth string to D and it will sound fine
email me at chunkielunchbox@yahoo.com for corrections or concerns


Order:
Main Riff
Bridge
Main Riff
Bridge
Ending Riff


Main Riff
e---------------------------------
B---------------------------------
G--7-------------7----------------
D--7-------------7----------------
A--5-------------x----------------
D----------------5----------------

strum about 8 times each
all downstrokes

bridge
e-------------------------
B-------------------------
G--7---------7---------7--
D--7---------7---------7--
A--5---------7---------x--
D----------------------5--
   |         |         |
  10X       10X       20X

the above numbers are the strumming numbers in strumming down and up vigoresly,
you can listen to the song if you think im wrong, but it sounds good

ending riff
e--------------------------------------------
B--------------------------------------------
G--7----------7------------------------------
D--7----------7----------9----------9--------
A--x----------x----------9----------9--------
D--5----------7----------9----------11-------


thats about it, this band kicks ass you should attempt to see them on tour soon they are
currently headlining a tour and they are also opening for less then jake, i would go see
them if i were you.... thanks 
Аккорд D

Early November — Sunday Drive

 this is a beautiful song by the early november. personally, ace enders is one of my
top vocalists/songwriters. this is my first official tab. i'm proud of it, and i'm
glad you're using it. i know this is correct because i watched ace play it, and i
was taking mental notes. so have fun. *smiles stupidly


*

intro/verse:
e|--------------------------------------|
b|--------------------------------------|
g|--7-7-7-7-7-7-7-7--7-7-7-7-7-7-7-7-7--|
d|--7-7-7-7-7-7-7-7--7-7-7-7-7-7-7-7-7--|
a|--0-0-0-0-0-0-0-0--5-5-5-5-5-5-5-5-5--|
e|--x-x-x-x-x-x-x-0--5-5-5-5-5-5-5-5-5--|

play that twice for the intro, and keep repeating it for the verses.

chorus:
e|------------------------------------------------------------|
b|------------------------------------------------------------|
g|--7-7-7-7-7-7-7-7-7-7-7-7-7-7--7-7-7-7-7-7-7-7-7-7-7-7-7-7--|
d|--7-7-7-7-7-7-7-7-7-7-7-7-7-7--7-7-7-7-7-7-7-7-7-7-7-7-7-7--|
a|--5-5-5-5-5-5-5-5-5-5-5-5-5-5--7-7-7-7-7-7-7-7-7-7-7-7-7-7--|
e|--0-0-0-0-0-0-0-0-0-0-0-0-0-0--0-0-0-0-0-0-0-0-0-0-0-0-0-0--|

e|------------------------------------------------------------|
b|------------------------------------------------------------|
g|--7-7-7-7-7-7-7-7-7-7-7-7-7-7-7-7-7-7-7-7-7-7-7-7-7-7-7-7---|
d|--7-7-7-7-7-7-7-7-7-7-7-7-7-7-7-7-7-7-7-7-7-7-7-7-7-7-7-7---|
a|--5-5-5-5-5-5-5-5-5-5-5-5-5-5-5-5-5-5-5-5-5-5-5-5-5-5-5-5---|
e|--5-5-5-5-5-5-5-5-5-5-5-5-5-5-5-5-5-5-5-5-5-5-5-5-5-5-5-5---|

play this once before the chorus, and then proceed to play it twice for the chorus.
then repeat the intro/verse and chorus again.

bridge:
e|----------------------------------------------------------------|
b|----------------------------------------------------------------|
g|--7-7-7-7-7-7-7-7-7-7-7-7--7-7-7-7-7-7-7-7-7-7-7-7--------------|
d|--7-7-7-7-7-7-7-7-7-7-7-7--7-7-7-7-7-7-7-7-7-7-7-7--------------|
a|--5-5-5-5-5-5-5-5-5-5-5-5--0-0-0-0-0-0-0-0-0-0-0-0--------------|
e|--5-5-5-5-5-5-5-5-5-5-5-5--7-7-7-7-7-7-7-7-7-7-7-7--------------|

e|----------------------------------------------------------------|
b|----------------------------------------------------------------|
g|----------------------------------------------------------------|
d|--7-7-7-7-7-7-7-7-7-7-7-7--7--7--7--7--7--7--7--7--7--7--7--7---|
a|--0-0-0-0-0-0-0-0-0-0-0-0--0--0--0--0--0--0--0--0--0--0--0--0---|
e|--9-9-9-9-9-9-9-9-9-9-9-9--11-11-11-11-11-11-11-11-11-11-11-11--|

play this five times for the bridge. 

end on:
e|-----|
b|-----|
g|--7--|
d|--7--|
a|--5--|
e|--5--|

intro/verse
chorus
intro/verse
chorus
bridge

lyrics:
-VERSE1-
and we wait above a road
we're turning to go home
and the silence from the side of the car
tells me everything
and how we are
is there no more trying to make this all right?
there's no more trying tonight

-CHORUS-
and you know it's not so easy when you're all alone
and i wonder if i'm alone in your head

-VERSE2-
i know something is wrong
i just don't know what to do
you say it's only me
and that i'm so perfect for you
i don't want to try no more
i don't want to make this right
i just want you to be true to me
one time

-CHORUS-
and you know it's not so easy when you're all alone
and i wonder if i'm alone in your head

-BRIDGE-
twelve days gone by since i have saw you last
i'll give this one more try
i'll give it all my best
and i'll ask what could you be doing that is so much fun
without me by your side
without me by your side
and i will take a step back
and i'll let you ahead
and i will take a step away and see if you come back
because there's no more trying to make this all right
there's no more trying
there's no more trying tonight
we'll never be the same
we will never be the same
we will never be the same 
we will never be the same until you're done



that is all folks, and i hope you enjoy it.