Портал для гитаристов
gtars.ru

Earshot — Not Afraid

 By SOiLman22285(SOILman22285@hotmail.com or AIM: EarshotRox22285)

This is the intro, play it soft!

E------------------------------------------------------------------
A------------------------------------------------------------------
D--11-11-11-11----11-11-11-11----7-7------14-14-14-14---13-13-13-13
G------------------------------------------------------------------
B-9----------------------------5-------12--------------------------
E------------------------------------------------------------------

Look for my other Earshot and SOiL Tabs. 

Earshot — Not Afraid

 OMG I'M SICK OF BAD TABS this song is so easy to figure out!

This is in REGULAR TUNING
e-3-3-3--3-3---3-3-3-----6-6-6-6-6--5-5-5(either 5-5 or
b-------------------3-3---------------------------  3-3)
g-------------------------------------------------
d-------------------------------------------------
a-------------------------------------------------
e-------------------------------------------------

Play this riff like 5 times. It's easy to do if you play along with the song
no Db tuning, no playing on the 9th and 11th fret on the 3rd string, plain and
simple. 
Аккорд BADАккорд Db

Earshot — Not Afraid

 ----------------------------------------------------------------------
			     Not Afraid - Earshot
----------------------------------------------------------------------

By:Lachrymal

Dropped Db (dropped D tuned down 1/2 a step)
eb|------------------------------------------------------------------|
Bb|------------------------------------------------------------------|
Gb|--12-12-12-12----12-12-12-12----8-8------15-15-15-15---14-14-14-14|
Db|------------------------------------------------------------------|
Ab|-10----------------------------6-------13-------------------------|
Db|------------------------------------------------------------------|

eb|------------------------------------|
Bb|------------------------------------|
Gb|------------------------------------|
Db|-11111-111-111-55555-777-888--------|
Ab|-11111-111-111-55555-777-888--------|
Db|-11111-111-111-55555-777-888--------|

i'm pretty sure these are the right chords..i don't have my guitar with me
cause i'm not at home...but i'll check it as soon as i'm home and if i was
wrong, i'll repost the right chords...but i'm almost positive that this is
right.

(check out my tabs on Cold, Finger Eleven, and many more to come!)
PLEASE RATE THIS TAB!!!!!!!!!! 
Аккорд DbАккорд D