Портал для гитаристов
gtars.ru

Earshot — Unfortunate

 This is just a quick tab, sounds good but probably isn't perfect

Verse
------------------------------------------------------------
------------------------------------------------------------
------------------------------------------------------------
--3-4---0---6-4---------------------------------------------
--3-4---0---6-4---------------------------------------------
--3-4---0---6-4---------------------------------------------

chorus (these are the chords, figure out the strum pattern for yourself)
------------------------------------------------------------
------------------------------------------------------------
---5------3------x-----3------------------------------------
---3------1------0-----1------------------------------------
---3------1------0-----1------------------------------------
---3------1------0-----1------------------------------------ 

Earshot — Unfortunate

 This is the best i could get...i couldnt get the weird begining part though,
i cant pick out what hes playing its got too much weird distortion effect.

Int.
e----------------------------------------
B----------------------------------------
G----------------------------------------
D----0--2---0--5--3----------------------
A----0--2---0--5--3----------------------
D----0--2---0--5--3----------------------
     p.m...........

Chorus
e----------------------------------------
B----------------------------------------
G----------------------------------------
D----3-----1-----0----1------------------
A----3-----1-----0----1------------------
D----3-----1-----0----1------------------