Портал для гитаристов
gtars.ru

Earshot — Wait

 0:00                         3x           I CAN WAIT (0:38)                
E||----------------------|--------------||--------------------|
B||----------------------|--------------||--------------------|
G||----------------------|--------------||--------------------|
D||----------------------|--------------||---2----------------|
A||--7--2--------7--2----|--------0--2--||---0----------------|
D||--7--2--------7--2----|--------0--2--||---0----------------|


                                                                               
------------------|-------------------|------------------|-------------------
------------------|-------------------|------------------|-------------------
------------------|-------------------|------------------|-------------------
------------------|--5----------------|------------------|--10---------------
------------------|--3----------------|------------------|--8----------------
------------------|--3----------------|------------------|--8----------------


                                                             3x
------------------|--------------------|----------------------||
------------------|--------------------|----------------------||
------------------|--------------------|----------------------||
------------------|--10----------------|--12-------------------||
------------------|--8-----------------|--10------------------||
------------------|--8-----------------|--10------------------|| 

Earshot — Wait

 Tuning Dadgbe

(intro)
e------------------|
b------------------|
g------------------|
d-1p0-0-0-1p0-0-0--|  12X
a-1p0-0-0-1p0-0-0--|
d-1p0-0-0-1p0-0-0--|

The verse is just the intro palm muted

(chorus)

e--------------------------|
b--------------------------|
g--------------------------|
d-2-2-2-2-2-2-5-5-5-5-5-5--|
a-0-0-0-0-0-0-3-3-3-3-3-3--|
d-0-0-0-0-0-0-3-3-3-3-3-3--|

d-10-10-10-10-10-10-|
a-8--8--8--8--8--8--|
d-8--8--8--8--8--8--|

you play the intro for the outro and palm mute open at the end

thats pretty much it