Портал для гитаристов
gtars.ru

Easyworld — Try Not To Think

 song - try not to think
artist - easyworld
album - better ways to self destruct
tabbed by - rose williams abadchoice@hotmail.com

main riff
e-----------------3--6>--(3)----------------------
b--3--4--3--4--6----------------------------------
g-------------------------------------------------
d-------------------------------------------------
a-------------------------------------------------
E-------------------------------------------------

bridge
e---------------------4>-----------------1--3>----
b-------------------------------------------------
g-------------------------------------------------
d-------------------------------------------------
a-------------------------------------------------
E-wait during beeps---------more beeps------------


notes
intro - main riff
verse - hold last note 6> on for 10 bars, play main riff, hold 6> then change to (3) when u hear it
chorus - u can play main riff without 1st 2 notes for chorus
end - 3 fret on b string repeated 

Easyworld — Try Not To Think

 Artist - Easyworld
Song - Try not to Think
Album - This is Where I Stand/Better Ways to Self Destruct
Tabbed by - Rose (abadchoice@hotmail.com)

INTRO  (X4)
g ----------------------------------!
d -----0-----0-0---------1----1-1---!
a -1-1----11-------1-1-1----11------!
e ----------------------------------!

VERSE 
g ----------------------------------!
d -----0-----0-0---------1----1-1---! (X3)
a -1-1----11-------1-1-1----11------!
e ----------------------------------!

g ---------------------------------!
d -----0-----0-0---------1----1----!
a -1-1----11-------1-1-1----11--1--!
e ---------------------------------!
  are......   you  know...
g ----------------------------------!
d ----------------------------------!
a -----1-----1-1-------1---4-3-1-3--!
e -3-3----33-------2-2--------------!
  things 
g ----------------------------------!
d -----0-----0-0---------1----1-1---! (X3)
a -1-1----11-------1-1-1----11------!
e ----------------------------------!

g ---------------------------------!
d -----0-----0-0---------1----1----!
a -1-1----11-------1-1-1----11--1--!
e ---------------------------------!
  face          upon         body
g --------------------------------------!
d --------------------------------------!
a -----1----1-------1----1-------1----1-!
e -3-3---33-----2-2---22-----1-1---11---!
  of         si co   po  st
g ----------!---------------!
d ----------!--------1------!
a ----------!-1----------3--!
e -00000000-!----3----------!

CHORUS
g --------------------!-----------00000000-!
d -00000000--11111111-!-33333333-----------!
a --------------------!--------------------!
e --------------------!--------------------!

g -------------X000X000-!
d ----------------------!
a -33333333-------------!
e ----------------------!

BRIDGE
g -----------!
d --------3--!
a -1---4-----!
e -----------!