Портал для гитаристов
gtars.ru

Ebba Gron — 800 Grader

 Author/Artist: Ebba Grцn
Title: 800 Grader
Album: Кдrlек & Uppror
Tabbed by: Jacob Carlborg
Email: doobnet@hotmail.com


Guitar sound: Distorted
Chords: Use  power chords

Verse:

A: 	577xxx
B 1: 	799xxx
E 1:	x799xx
F#m 1:	x91111xx (eleven not one)

Pre-chorus:

A: 	577xxx
E 1:	x799xx
D:	x577

Chorus:

F#m 2:	244xxx
E 2:	022xxx
B 2:	x244xx


-------------------------------------------------------------------------------

Intro:

e|--------------------------|
B|--------------------------| 
G|-------------9-9-9-9-11-9-|   4 times
D|-7-7-7-9-9-9-9-9-9-9-11-9-|  /
A|-7-7-7-9-9-9-7-7-7-7-9--7-| /
E|-5-5-5-7-7-7--------------|/



Verse:

e|--------------------------|
B|--------------------------| 
G|---------------9-9-9-11-9-|   4 times
D|-7-----9-------9-9-9-11-9-|  /
A|-7-----9-------7-7-7-9--7-| /
E|-5-----7------------------|/



Pre-chorus:

e|-------------------------|------------------------|
B|-------------------------|------------------------| 
G|-------------9-9-9-9-9-9-|7-7-7-7-7-7-------------|   4 times
D|-7-7-7-7-7-7-9-9-9-9-9-9-|7-7-7-7-7-7-7-7-7-7-7-7-|  /
A|-7-7-7-7-7-7-7-7-7-7-7-7-|5-5-5-5-5-5-7-7-7-7-7-7-| /
E|-5-5-5-5-5-5-------------|------------5-5-5-5-5-5-|/



Chorus:

e|-------------------------|------------------------|
B|-------------------------|------------------------| 
G|-------------------------|4-4-4-4-4-4-------------|   4 times
D|-4-4-4-4-4-4-2-2-2-2-2-2-|4-4-4-4-4-4-4-4-4-4-4-4-|  /
A|-4-4-4-4-4-4-2-2-2-2-2-2-|2-2-2-2-2-2-4-4-4-4-4-4-| /
E|-2-2-2-2-2-2-0-0-0-0-0-0-|------------2-2-2-2-2-2-|/


-------------------------------------------------------------------------------

Verse 1:

	 A	   	B	  E	F#m	B 
Vаrfцr fцrкlаrа nдr jag slutat tro?
	       A	        B	  E	F#m	B
Vad finns det kvar mer дn the biggest blow?
	 A	   	  B	  E	F#m	B
Den e sе hundraprocentigt effektiv
       	A   B	    E	F#m	B
nдr den tar vеrа liv


Pre-chorus:
	
   A		     E
Vi fryser iнjдl, det дr sе kallt,
D		   A
stackars barn, men snart blir det varmt
       A		E
Ja, vi fryser iнjдl, de дr sе kallt,
D		   A
stackars barn, men snart blir det varmt


Chorus:
	 F#m	    E
Det blir еттанundrа grader 
       B		   F#m
Du kan lita ре mig, du kan lita ре mig
F#m	   E
еттанundrа grader
       B		   F#m
Du kan lita ре mig, du kan lita ре mig


Intro


Verse 2:

Мдnnisкоr med stirrande blick,
du grдт fast du inte fick
Varma кlдdеr med sе kalla кеrаr
inte konstigt nдr jag bara ser dеrаr


Pre-chorus
Chorus
Intro


Verse 3:

Ibland кдnns det ingenting alls, 
Дvеn nдr dom hugger av min hals
Bara sе jдvlа tom,
nдr jag vдnтаr ре min egen dom


Pre-chorus
Chorus


Chorus >  repeat 5 times 
Аккорд BАккорд EАккорд F#mАккорд AАккорд D

Ebba Gron — 800 Grader

 Hi this tab is 100% correct!
Cours:
G|---------------------
H|---------------------
A|----------5-5-5-7-5--  x 4
E|--3-3-5-5------------


  (Play the notes slower on the E part.
   You se its larger space between them)
G|-----------------------
H|-----------------------
A|------------5-5-5-7-5--  x 4
E|--3--3-5--5------------


Riff:
G|---------------------------------------------------
H|---------------------------------------------------
A|--------------7-7-7-7-7-7-5-5-5-5-5-5--------------  x 2
E|--5-5-5-5-5-5-------------------------5-5-5-5-5-5--



G|---------------------------------------------------
H|---------------------------------------------------
A|--------------------------2-2-2-2-2-2--------------  x 2
E|--2-2-2-2-2-2-0-0-0-0-0-0-------------2-2-2-2-2-2--


----------------------------------------------------------------------------


Cours:
G|---------------------
H|---------------------
A|----------5-5-5-7-5--  x 4
E|--3-3-5-5------------


  (Play the notes slower on the E part.
   You se its larger space between them)
G|-----------------------
H|-----------------------
A|------------5-5-5-7-5--  x 4
E|--3--3-5--5------------


Riff:
G|---------------------------------------------------
H|---------------------------------------------------
A|--------------7-7-7-7-7-7-5-5-5-5-5-5--------------  x 2
E|--5-5-5-5-5-5-------------------------5-5-5-5-5-5--



G|---------------------------------------------------
H|---------------------------------------------------
A|--------------------------2-2-2-2-2-2--------------  x 2
E|--2-2-2-2-2-2-0-0-0-0-0-0-------------2-2-2-2-2-2--


----------------------------------------------------------------------------


Cours:
G|---------------------
H|---------------------
A|----------5-5-5-7-5--  x 4
E|--3-3-5-5------------


  (Play the notes slower on the E part.
   You se its larger space between them)
G|-----------------------
H|-----------------------
A|------------5-5-5-7-5--  x 4
E|--3--3-5--5------------


Riff:
G|---------------------------------------------------
H|---------------------------------------------------
A|--------------7-7-7-7-7-7-5-5-5-5-5-5--------------  x 2
E|--5-5-5-5-5-5-------------------------5-5-5-5-5-5--



G|---------------------------------------------------
H|---------------------------------------------------
A|--------------------------2-2-2-2-2-2--------------  x 2
E|--2-2-2-2-2-2-0-0-0-0-0-0-------------2-2-2-2-2-2--

----------------------------------------------------------------------------
Download it and listning to the rhythm... 
Аккорд E

Ebba Gron — 800 Grader

 Artist: Ebba Grцn
Song: 800 grader
Tabbed by: Adam Widing
Please correct me if the tabis wrong
Kaffe_Drick@hotmail.com

Intro: 4x

e|------------------|
b|------------------|
g|------------------|
d|--------79-11-79--|
a|--77-79-79-9--79--|
E|--55-79-----------|

Verse: 4x

e|------------------|
b|------------------|
g|------------------|
d|--------79-11-79--|
a|--77-79-79-9--79--|
E|--55-79-----------|

Pre Chours: 2x
e|-------------------|
b|-------------------|
g|-------------------|
d|-------9---7-------|
a|--7----7---5----7--|
E|--5-------------5--|

Chours: 2x
e|------------------------------------------|
b|------------------------------------------|
g|------------------------------------------|
d|----------------------44444444------------|
a|--44444444--22222222--22222222--44444444--|
E|--22222222--00000000------------22222222--| 

Ebba Gron — 800 Grader

 |-------------------------------------------------------------|
|-------------------------------------------------------------|
|-------------9-9-9-9-11-9------------------------------------|
|-7-7-7>9-9-9-9-9-9-9-11-9------------------------------------|
|-7-7-7>9-9-9-7-7-7-7-9--7------------------------------------|
|-5-5-5>7-7-7-------------------------------------------------|

|-------------------------------------------------------------|
|-------------------------------------------------------------|
|---------------9-9-9-11-9------------------------------------|
|-7-----9-------9-9-9-11-9------------------------------------|
|-7-----9-------7-7-7-9--7------------------------------------|
|-5-----7-----------------------------------------------------|

|-------------------------------------------------------------|
|-------------------------------------------------------------|
|-------------9-9-9-9-9-9-7-7-7-7-7-7-------------------------|
|-7-7-7-7-7-7-9-9-9-9-9-9-7-7-7-7-7-7-7-7-7-7-7-7-------------|
|-7-7-7-7-7-7-7-7-7-7-7-7-5-5-5-5-5-5-7-7-7-7-7-7-------------|
|-5-5-5-5-5-5-------------------------5-5-5-5-5-5-------------|

|-------------------------------------------------------------|
|-------------------------------------------------------------|
|-------------------------4-4-4-4-4-4-------------------------|
|-4-4-4-4-4-4-2-2-2-2-2-2-4-4-4-4-4-4-4-4-4-4-4-4-------------|
|-4-4-4-4-4-4-2-2-2-2-2-2-2-2-2-2-2-2-4-4-4-4-4-4-------------|
|-2-2-2-2-2-2-0-0-0-0-0-0-------------2-2-2-2-2-2-------------|

I made this very simple...
I hope for your own good that u can hear how many times you should play each part