Портал для гитаристов
gtars.ru

Edna’s Goldfish — Eventually, Anyway

 Intro/Verse:	
[e:--7-3-5----------------------------------------------
B:--7-3-5----------------------------------------------
G:--7-4-6----------------------------------------------
D:--7-5-7----------------------------------------------
A:--5-5-7----------------------------------------------
E:--5-3-5----------------------------------------------

Chorus:		
e:-----------------------------------------------------
B:-----------------------------------------------------
G:--4--------------------------------------------------
D:--4-5-7----------------------------------------------
A:--2-5-7----------------------------------------------
E:----3-5----------------------------------------------]