Портал для гитаристов
gtars.ru

Eighties Matchbox B-line Disaster — Chicken

 Band:Eighties Matchbox Bline Disater
song:chicken
album:horse of the dog
tabbed by:Gaz Flint
E-mail: gaznirvanachilipepperdude@hotmail.com


Ok,i have searched for tabs by the 80s matchbox for hours on the net and all i
could find where the ones on this site.I figured this bit out of chicken,but if
it is not what you want dont blame me cos theres no other versions of it anywhere
on the net, but do feel free to correct it or add in all the other bits that i
have not figured out yet.Also if someone wants to tab the whole thing feel free
to use this as somewhere to start.

tuning:standard E>A>D>G>B>e

intro
gtr1
e---0-0-0-0-0-0-0-0---2-2-2-2-2-2-2-2-----
B---0-0-0-0-0-0-0-0---2-2-2-2-2-2-2-2-----
G---4-4-4-4-4-4-4-4---3-3-3-3-3-3-3-2-----
D---5-5-5-5-5-5-5-5---4-4-4-4-4-4-4-2-----
A---5-5-5-5-5-5-5-5---4-4-4-4-4-4-4-2-----
E---0-0-0-0-0-0-0-0---2-2-2-2-2-2-2-2-----

then after that plays a few times the rest of the band comes in and the 2nd guitar is playin;

gtr2
e------------------------------
B------------------------------
G------------------------------
D------------------------------
A--2-2-2-5-5-5-5-2-2-2-4-4-4-4-
E------------------------------

Thats all for now 

Eighties Matchbox B-line Disaster — Chicken

 intro:guitar 1 (verses aswell)

e|-----------------2-2-2-2-2-2-2-2-|
B|-5-5-5-5-5-5-5-5-2-2-2-2-2-2-2-2-|
G|-4-4-4-4-4-4-4-4-3-3-3-3-3-3-3-3-|
D|-2-2-2-2-2-2-2-2-4-4-4-4-4-4-4-4-|
A|-----------------4-4-4-4-4-4-4-4-|
E|-----------------2-2-2-2-2-2-2-2-|

gtr 2

e|--------------------------------|
B|--------------------------------|
G|--------------------------------|
D|--------------------------------|
A|-------2^---------2^---------2^-|
E|-0-0-3------0-0-3------0-0-3----|

verse 1/ man riff

gtr 1 = intro quietly

gtr 2

e|-------------------|
B|-------------------|
G|-------------------|
D|-------------------|
A|-------2^-------1^-|
E|-0-0-3-----0-0-3---|

bridge

gtr 1

e|---------------------------------|
B|---------------------------------|
G|---------------------------------|
D|-5-5-5-5-5-5-5-4-4-4-4-3-3-3-3-2-|
A|-5-5-5-5-5-5-5-4-4-4-4-3-3-3-3-2-|
E|-3-3-3-3-3-3-3-2-2-2-2-1-1-1-1-0-|

gtr 2

e|-----------------|
B|-----------------|
G|-----------------|
D|-----------------|
A|-5-5-5-5/4-4/1-1-|
E|-3-3-3-3/2-2/1-1-|


main riff

bridge

chorous 1

gtr 1


      times 2       times about 4  
e|-0-3-0--3-3-3-3-|-3-0-3-6-6-6-6-|
B|-0-3-0--3-3-3-3-|-3-0-3-6-6-6-6-|
G|-1-4-1--3-3-3-3-|-4-1-4-7-7-7-7-|
D|-2-5-2--3-3-3-3-|-5-2-5-8-8-8-8-|
A|-2-5-2--1-1-1-1-|-5-2-5-8-8-8-8-|
E|-0-3-0----------|-3-0-3-6-6-6-6-|

gtr 2


     times 2           times about 4  times 2 gtr 1 does this aswell
e|-------------------|--------------|---------------------------------|
B|-------------------|--------------|---------------------------------|
G|-------------------|--------------|---------------------------------|
D|-2-2-5-2-2-8-8-8-8-|-5-2-5-888888-|-2-2-2-2-2-2-2-2-8-8-8-8-8-8-8-8-|
A|-2-2-5-2-2-8-8-8-8-|-5-2-5-888888-|-2-2-2-2-2-2-2-2-8-8-8-8-8-8-8-8-|
E|-0-0-3-0-0-6-6-6-6-|-3-0-3-666666-|-0-0-0-0-0-0-0-0-6-6-6-6-6-6-6-6-|

bridge

verse 2 same as verse 1 but only bass and gtr 2 play

bridge

verse 3 same as verse 1

chorous 2 same as before but miss out first bar

verse 3

gtr 1

e|----------------|-|
B|----------------|-|
G|----------------|-| 2nd bar is just the first 2 chords stummed realy fast
D|----------------|-|
A|----------------|-|
E|-0-0-3-0--0-3-0-|-|

gtr 2 (miss out first bar done by gtr1)

e|-999999999999/888888888888-|
B|-999999999999/888888888888-|
G|-999999999999/888888888888-|
D|---------------------------|
A|---------------------------|
E|---------------------------|

bridge 

chorous 3 is only 1st bar of chorous 1.

bride

thankyou! 

Eighties Matchbox B-line Disaster — Chicken

 i've tabbed this before but you cant realy play the previous ones as fast
as you should so here we go!

intro

|-0-0-0-0-0-0-0-0-0-0-0-0-0-0-0-0-|
|-5-5-5-5-5-5-5-5-4-4-4-4-4-4-4-4-|
|-4-4-4-4-4-4-4-4-3-3-3-3-3-3-3-3-| times about 4
|-2-2-2-2-2-2-2-2-2-2-2-2-2-2-2-2-|
|---------------------------------|
|---------------------------------|

main riff

|-----------------------|
|-----------------------|
|-----------------------|times loads
|-----------------------|
|-----2-22p0-----1-11p0-|by the way you DONT play at frets 11 and 22
|-0-03------0-003-------|

bridge 1

|-----------------------------------|
|-----------------------------------|
|-----------------------------------|
|-5-5-5-5-5-5-5-5-4-4-4-4-3-3-3-3-2-|
|-5-5-5-5-5-5-5-5-4-4-4-4-3-3-3-3-2-|
|-3-3-3-3-3-3-3-3-2-2-2-2-1-1-1-1-0-|

back to main riff

bridge 1

bridge 2

|---------------------|
|---------------------|
|-------------3-3-3-3-| times 2
|-2-2-0-2-222-3-3-3-3-|
|-2-2-2-2-222-1-1-1-1-|
|-0-0-3-0-000---------|

chorous

|------------------|--------------------------------|
|----times 4-------|--------times about 4-----------|
|------------------|--------------------------------|
|-5-/-2--5-8-8-8-8-|2-2-2-2-2-2-2-2-8-8-8-8-8-8-8-8-|
|-5-/-2--5-8-8-8-8-|2-2-2-2-2-2-2-2-8-8-8-8-8-8-8-8-|
|-3-/-0--3-6-6-6-6-|0-0-0-0-0-0-0-0-6-6-6-6-6-6-6-6-|

bridge 1

main riff 

bridge 1

chorous

then this bit if you want to play it with the bass

|--------------|
|--------------|
|--------------|
|--------------|
|-2--2222-2222-|
|-0--0030-0030-|

|----------------------------------|
|-99999999888888888999999988888888-|
|-99999999888888888999999988888888-|
|-99999999888888888999999988888888-|
|----------------------------------|
|----------------------------------|

bridge 1

bridge 2 times about 4

and it sounds good if you end on:

|33333333222211110-!-|
|33333333222211110-!-|
|44444444333322221-!-|
|55555555444433332-!-|
|55555555444433332-!-|
|33333333222211110-!-| 

Eighties Matchbox B-line Disaster — Chicken

 this song is like all bass so it rocks!

intro

G|-------------------------------------|
D|-------------------------------------|
A|------2~~-----------2~~-------2~~----|
E|-0-0-3--------0-0-3------0-0-3-------|

verses(main riff)

G|---------------------------|
D|---------------------------| times loads
A|------2-2-2p0------1-1-1p0-|
E|-0-0-3--------0-0-3--------|

G|-----------------|
D|-----------------| bridge
A|-----------------|
E|-3-3-3-3-2-2-1-1-|

back to main riff then bridge

chorous 1

G|---------------------------------|-----------------|-----------------------
D|---------------------------------|-times-loads-----|---times2--------------
A|---------------------------------|-----------------|-----------------------
E|-0-0-3-0-6-6-6-6-0-0-3-0-6-6-6-6-|-3-0-3-3-6-6-6-6-|-0-0-0-0-0-0-0-0/6-6-6-

G|-----------|
D|-----------|
A|-----------|
E|-6-6-6-6-6-|

bridge

main riff

bridge

main riff

the second chorous is just the last 2 bars

bridge

wierd verse

G|--------------------|
D|----times-about-6---|
A|--------------------|
E|-0-0-3p0-0-0-3-p0-0-|

3rd chorous is first bar of 1st chorous
i also done it for lead