Портал для гитаристов
gtars.ru

El Dorado — Advice

           band: el dorado
          
          song: advice
          
          intro and riff (they are the same)
          
          g--------------------
          d--------------------
          a-6666---------------
          e------6666-8888-6666
          
          chorus
          
          g--------------------
          d--------------------
          a-6666---------------
          e------6666-8888-4444
          
          bridge
          
          g------------
          d------------
          a-66---------
          e----66-88-66
          
          *order*
          intro  8 times
          riff   4 times
          chorus 4 times
          riff   4 times
          chorus 4 times
          bridge 4 times
          chorus 8 times
          
          ryan
          email motocrossboy83@aol.com 

El Dorado — Advice

 band:EL dorado
song:advice

intro:clean for 2X then dist.for4X
E-------------------------------
B-------------------------------
G8-8-8-8------------------------
D8-8-8-8-8-8-8-8-8-8-8-8-8-8-8-8
A6-------8-8-8-8-8-8-8-8-8-8-8-8
E--------6-------8-------6------

riff#1 4X
E------------------------------------------
B------------------------------------------
G8~~~~~~~-8-0-8-0--------------------------
D8~~~~~~~---------8-0-8-0-10-0-10-0-8-0-8-0
A6~~~~~~~----------------------------------
E------------------------------------------

chorus#1 4X
E-----------------------------------
B-----------------------------------
G8-8-8-8----------------------------
D8-8-8-8-8-8-8-8-10-10-10-10-6-6-6-6
A6-6-6-6-8-8-8-8-10-10-10-10-6-6-6-6
E--------6-6-6-6--8--8--8--8-4-4-4-4

riff#2
same

chorus#2 8X

bridge 8X
same as chorus just palm muted

chorus#3 8X


daniel
skate25958@aol.com