Портал для гитаристов
gtars.ru

El Dorado — Jazz Song

 BAND: EL dorado
song: Jazz Song


intro
iffs: guitar 2X by self
E------------------------------------------------
B------------------------------------------------
G---------------------------0-2-3-2-0---0-2-3-2-0
D--0-2-3-2-0---0-2-3-2-0---2---------2-2---------
A-2---------2-2---------2-3----------------------
E3-----------3-----------------------------------

chorus 4X
E-------------
B-------------
G----4-4-5-5-7
D5-5-4-4-5-5-7
A5-5-2-2-3-3-5
E3-3----------

Riff#2
same

chorus #2
same

ending
E---
B---
G5~-
D5~5
A3~5
E--3daniel
skate259582@aol.com 
Аккорд E3-3----------Аккорд E---Аккорд B---

El Dorado — Jazz Song

           band: el dorado
          
          song: jazz song
          
          riff
          
          g-------------------------------------0-2-3-2-0-------0-2-3-2-0-
          d-----0-2-3-2-0-------0-2-3-2-0-----2-----------2---2----------2
          a---2-----------2---2-----------2-3---------------3-------------
          e-3---------------3---------------------------------------------
          
          chorus
          
          g-----------
          d-----------
          a----22-33-5
          e-33--------
          
          ending
          
          g-------------------
          d-------------------
          a----22-33-5~~~~~3--
          e-33---------------3
          
          *order*
          
          intro   guitar only
          riff    4x
          chorus  4x
          riff    4x
          chorus  3x
          ending  1x