Портал для гитаристов
gtars.ru

Luis Alberto Spinetta — Por

 D              A/C#      Bm 
Árbol, oja, salto, luz, 
     A         G 
aproximación, 
               F#m 
mueble, lana, gusto, pie, 
 F   G  A    F G 
te, marcas, miradas 
D             A/C#      Bm 
 Nube, loba, dedo, cal, 
      A        G 
gesticulador, 
             F#m 
hijo, cama, menta, sien, 
 F    G    A   F G      A 
rey, fin, sol, amigo, cruz. 
F#     F#/F   F#/E   Emaj7 
Alga, dado, cielo, riel, 
Riff1             [Riff2]x2 
estalactita, mirador, corazón. 
 F#      F#/F  F#/E   Emaj7 
Hombre, rayo, felpa, sed 
Riff 
extremidad, inslación, parecer. 
A°               F   C/E 
  Clavo, coito, Dios 
 A Dm   D°        C  Bb  Am  G  F 
temor,    mujer, por. 
 
Riff1 
|----------------| 
|-2-4-2-4-2------| 
|-4-4-4-4-4-4-3-2| 
|----------------| 
|----------------| 
|----------------| 
 
Riff2 
|-------3-------------3-------------3-------------3---------| 
|-----2---2---------2---2---------2---2---------2---2-------| 
|---3-------3-----3-------3-----3-------3-----3-------3-----| 
|-0-----------0/2-----------2/4-----------4/2-----------2/0-| 
|-----------------------------------------------------------| 
|-----------------------------------------------------------| 
Аккорд DАккорд A/C#Аккорд BmАккорд AАккорд GАккорд F#mАккорд FАккорд F#Аккорд F#/FАккорд F#/EАккорд Emaj7Аккорд C/EАккорд DmАккорд CАккорд BbАккорд Am