Портал для гитаристов
gtars.ru

Ghoti Hook — Where Is My Mind

 Band: Ghoit Hook
song: Where Is My Mind

SOLO: You'll need two guitars to do this solo or it won't sound right
      the first guitar will start out and then half way
      into the solo another guitar will enter in with it!
       
      E---------------------|--------------7-10-12b-14-14-14---------
      B---------------------|---------7-10---------------------------
      G--9b-9b-9b-9-7---7-9-|-7---7-9--------------------------------
      D---------------9-----|---9------------------------------------
      A---------------------|----------------------------------------
      E---------------------|----------------------------------------

      E----------7-10-10-12-12b-14-14-14-----------------------------
      B---7-10-7-----------------------------------------------------
      G--------------------------------------------------------------
      D--------------------------------------------------------------
      A--------------------------------------------------------------
      E-------------------------------------------------------------- 

Ghoti Hook — Where Is My Mind

 artist:ghoti hook
song:where is my mind
album:songs we didn't write
tabber:david grimes

this is a cool song originally done by the pixies but is definately done better
by ghoti hook. its about 95% right. enjoy

standard tuning
strumming patterns not show
(intro)acoustic
e-0---4---4---5------------------
b-0---5---4---5------------------
g-1---6---5---6------------------
d-2---6---6---7------------------
a-2---4---6---7------------------
e-0---4---4---5------------------

(beggining of verse)electric
e---4--4--4--4--4--4-------------
b--5--5--5--5--4--4---4-5--4-5---
g--------------------------------
d--------------------------------
a--------------------------------
e--------------------------------

(verse)
e--------------------------------
b--------------------------------
g-----6--------------------------
d-2---6---6---7------------------
a-2---4---6---7------------------
e-0-------4---5------------------

(solo)
e-------------------------------------------
b--9b---9b----------------------------810-- 
g--9b---9b-----9b--9-9-9-7----7---9--------- 
d----------------------------9-------------- 
a------------------------------------------- 
e------------------------------------------- 

e--------10-12-12-12b--13b---13b---13b------ 
b-10-12------------------------------------- 
g------------------------------------------- 
d------------------------------------------- 
a------------------------------------------- 
e------------------------------------------- 

that's it, but im not quite sure about the 
solo. i think that its played with 2 guitars.
email me at ghotihookfreak06@aol.com if there
are any questions...or email me if you have heard
of ghoti hook cuz i don't know of anyone who has!