Портал для гитаристов
gtars.ru

David Gilmour — Cry From The Street

 Intro:		
[---------------------------------
---------------------------------
-----2--4-----2--2---------------
-----2--4-----2--2--4p2--4-4~p2--
---------------------------------
--2--------2---------------------

-------------------------------------------
-------------------------------------------
----2--2-------2--2------------------------
----2--2--4p2--2--2--4p2--4b~p2------------
--------------------------------4--4/2p0---
-2---------------------------------------2~

-------------------------------------------------2-------------
-------------------------------------------------2-------------
-2-----------2--4--2-----2--4--2---------2--4--2---------------
---2---------2--4--2-----2--4--2---------2--4--2------2--4b--2-
---------------------------------------------------------------
----------2-----------2----------2-2---2------------2----------

-----------------------------------------2---------------------
------------------------------2--4--2----2-----2--4--2---------
---2--4--2--------------------2--4--2----------2--4--2---------
---2--4--2---2-4brp2----------2--4--2----------2--4--2--2--4--2
---------------------4-----------------------------------------
-2---------2---------------2-----------------2-----------------

------------2--------------------------------------------------
------------2--------------------------------2--4--2-----------
---2--4--2-----------------2--4--2wb---------2--4--2-----------
---2--4--2----2--4b--2-----2--4--2wb---------2--4--2--2--4b--2-
---------------------------------------------------------------
-2---------------------2-------------2-2---2-------------------

-------------2---------------------------------------------------2-
-------------2---------------------------------------------------2-
----2--4--2--------------------2--4--2------------------2--4--2----
----2--4--2------2--4b--2------2--4--2----2--4b--2------2--4--2----
-------------------------------------------------------------------
-2-------------2------------2-----------2-------------2------------

--------------------------------------------------2-----------
---------------------4b--4brp2--------------------2-----------
---------------------4b--4brp2------------2--4--2----2--------
--4--2--4brp2--------4b--4brp2-4~-2-4-2---2--4--2----2--4b--2-
--------------4-----------------------------------------------
-----------------2----------------------2---------------------
                                 D   E
---------------------------------------------------2---0--
-------------------------------2-------------------3---0--
---2--4--2------------2--4--2--2------2-----2--4---2---1--
---2--4--2--2-4b-2----2--4--2-----------2---2--4---0---2--
-------------------------------------------------------2--
-2-----------------2-------------2--2------------------0--]
                          Vocals begin here at 1:25
[---------------------------------------------------------------
---------------------------------------------------------------
-2--4--2------------2--4--2------------2--4--2-----------------
-2--4--2--2-4b-2----2--4--2------------2--4--2--2--4b--2-------
---------------------------------------------------------------
------------------2----------2-2----2--------------------------]
The vocal parts follow what's outlined above
(with minimal variations).

Lyrics:		
Black shadows dance
Beyond the neon glow
There's rumors in your head
And just one way to Go
Oh so tight
It makes your blood run cold
Name is blind
Tryin' to save your soul
D
Don't even pray
E
Just cry from the street
It's fine as you leave
The one they keep at home
So you've lost someone
That you thought you owned
You know it's a crime
But what can you do?
That's the price you pay
With each turn of the screw
D
But don't pay no mind
E
Just cry from the street
You really love the night
Even though you're alone
It's such a cryin' shame
That things are so wrong
It's the sign of your scream
That it blinds your feet
I guess the chance is ours
You wish to stay and sleep
D
But don't even pray
E
Just cry from the street

Solo begins at 3:21
[-------------------14------------------------
--17b~--14------14-----17p14-----------------
------------16b--------------16b--14---------
-------------------------------------16~----
---------------------------------------------
---------------------------------------------]
3:27
[---------------------------------------------
---------------------------------------------
--4b~-4b-4b-4brp2------2-4-4brp2---2------2--
-------------------4-------------4---4~------
---------------------------------------------
---------------------------------------------]
3:33
[------5--7brp5---5---------------------------------
--5/7--7-------7---7b--7-5--2----------------------
------------------------------2--4-4brp2----2------
------------------------------------------4----2~--
---------------------------------------------------
---------------------------------------------------]
3:41
[------------------------------------------------2-----
----------------------------------------------2---4p2-
-----------------------------2----2--------4b---------
-----------------------2h4-4---4b---------------------
---4-3-2----2-2p0-------------------------------------
----------5-------2~----------------------------------]
3:48
[------2----------------------------------------------
----2---4p2------------------------------------------
-4b---------4-4brp2----------------------------------
--------------------4-4~----2------------------------
------------------------------4p2p0-2-4p2p0-2p0------
--------------------------------------------------2~-]
3:56
[---------------------------------------
---------------------------------------
------7-9-9br-7~------9-11-11b-11br-9--
--5/7-------------7/9------------------
---------------------------------------
---------------------------------------]
4:01
[----------------------------
---------------10br10br10~--
-----7-9-9brp7--------------
-5/7------------------------
----------------------------
----------------------------]
4:04
[--------------------------------------7------------
--7/9-7-9p7-----------------7-10--------10p7-------
------------9---9-9~----9b-------9b---------9b~---
--------------9------------------------------------
---------------------------------------------------
---------------------------------------------------]
4:11
[---------------------------------------------------------
---------------------------------------------------------
9brp7-9~-7-9-9br~-7--9b-9-9-7-6-7p6----------------------
-------------------------------------7~-6h7p6~-----------
----------------------------------------------9-7-7~/----
---------------------------------------------------------]
Ending  - add F# minor blues licks throughout....
4:21
[-16b-16---------------------------------------------------
--------17b-17--------------------------------------------
---------------16b-16--13b-13~----------------------------
----------------------------------------------------------
----------------------------------------------------------] 
Аккорд DАккорд EАккорд F#