Портал для гитаристов
gtars.ru

Glass Jaw — Flagburning Dakota

 Band:Glassjaw
Song:FlagBurning Dakota
Album:unreleased demo
Tuning:Drop D
tabbed by:intheaisleyelling
This is one of my favorite Glassjaw songs. Its different from there new stuff, but its still really good.

Intro
E ----------------------------------------------|
B ----------------------------------------------|
G -----*5---------------------------------------|
D -0---*5---0-----------------------------------|
A -0--------0-----------------------------------|
D -0--------0---->pick scrape down the string>--|

verse-this is the only part I'm not 100% sure on cause the recording of the song is bad.
E ----------------|
B ----------------|
G -11-------------|
D -9------8-------|
A -7(x6)--6-------|
D --------6(x10)--|

small fill
E -------------------|
B -------------------|
G -------------------|
D -------------------|
A -2222222223333333--|
D -2222222223333333--|

chorus-palm mute the notes that are dotted. Play this twice.
E -0-0-0-0-----------------------------------------------|
B -0-0-0-0-----------------------------------------------|
G -6-6-6-6-----------------------------------------------|
D -6-6-6-6-----------------------------------------------|
A -4-4-4-4-222320222320233/5--0-0-0-0-222320222320233/5--|
D ---------222320222320233/5--0-0-0-0-222320222320233/5--|
         pm..  pm..         pm..........    ..

Harmonics before second verse
E -------|
B -------|
G -*12---|
D -*12---|
A -------|
D -------|

Second Verse

Chorus

fill before bridge
E ----------------------------------------------------|
B ----------------------------------------------------|
G ----------------------------------------------------|
D -----------------7777777777777777-------8888888888--|
A -----------------5555555555555555-9999996666666666--|
D -0000000000000000-----------------9998886666666666--|

bridge-play this 4x
E ------------------|
B ------------------|
G ------------------|
D -444--8888888888--|
A -222--6666666666--|
D -222--6666666666--|

small fill before outro
E -------------------|
B -------------------|
G -------------------|
D -------------------|
A -2222222223333333--|
D -2222222223333333--|

the outro is just the ninth chords in the bridge but inverted like this
E ------------------|
B ------------------|
G ------------------|
D -88888-4-4-4-4-4--|
A -66666-2-2-2-2-2--|
D -66666-2-2-2-2-2--| 
Аккорд DАккорд EАккорд BАккорд GАккорд A

Glass Jaw — Flagburning Dakota

 Artist - GlassJAw
Song   - Flagburning Dakota
Album  - Kiss Kiss Bang Bang
Tuning - DADGBE
Tabbed by David Diuguid (aka bmskate/DEFreak13)
Date: 12/18/01

pm... = palm mute
^#    = bend (to note of #)
r#    = release bend (to note of #)
s     = slide
/    = hammer on/off
 h = harmonic
(#)   = don't pick the note; slide down/up to that # or start at that # (relative, not approximate)


Intro
|-------------------------|
|-------------------------|
|-----12--11--------------|
|-----0---0--(pickscrape)-|
|-0---0---0--(pickscrape)-|
|-0---0---0--(pickscrape)-|


Verse
|-2-2-2-2-2-2-------------------------|---------------|
|-5-5-5-5-5-5-------------------------|-7-------------|
|-4-4-4-4-4-4-7-7-7-7-7-7-7-7-7-7-7-7-|---4-----------| guitar 2
|-2-2-2-2-2-2-6-6-6-6-6-6-6-6-6-6-6-6-|-----9-8/98-6-| over guitar 1
|-2-2-2-2-2-2-6-6-6-6-6-6-6-6-6-6-6-6-|---------------|
|-2-2-2-2-2-2-6-6-6-6-6-6-6-6-6-6-6-6-|---------------|


Chorus
pm...............................
|---------------------------------2-2-2-2-2-2-2-2-2-2-2-2-2-2-2-2-|
|---------------------------------5-5-5-5-5-5-5-5-5-5-5-5-5-5-5-5-|
|---------------------------------5-5-5-5-5-5-5-5-5-5-5-5-5-5-5-5-|
|-2-2-2-2-2-2-2-2-2-3-3-3-3-3-3-3---------------------------------|
|-2-2-2-2-2-2-2-2-2-3-3-3-3-3-3-3---------------------------------|
|-2-2-2-2-2-2-2-2-2-3-3-3-3-3-3-3---------------------------------|

pm...         ...                   .   .   .   .   h
|---------------------------------|---------------|---|
|---------------------------------|---------------|---|
|---------------------------------|---------------|---|
|-2-2-2/32